Nirvana - The Man Who Sold The Word (c переводом), аккорды

Прокрутка
Тональность
Шрифт
100
Intro: (with mild distortion)
E--------------------------
B--------------------------
G--2-2-2-0--2/32-0--------- x6
D--------------------------
A--------------------------
E--------------------------

                    A
We passed upon the stairs,	Прошли мы горы стен
                  D
We spoke of was and when,	И сплетений вен.
                  A
Although I wasn't there		Хотя и другом был,
                F
He said I was his friend,	Пропуск я просил
                    C
Which came as a surprise,	У тех, кто вечно за ...
                 A            
I spoke into his eyes           Сказал ему в глаза:
               D
I thought you died alone        ведь умер ты давно
                 C
А long long time ago		Один, давным-давно.

Chorus:
C
Oh no, not me,				О, нет, не я.
   C#             C
We never lost control,			Контроль – наш командир.
C
The face, to face,			Лицом к лицу
         C#
With the man who sold the world.	Я с тем, кто продал мир.

Intro: (with mild distortion)
E--------------------------
B--------------------------
G--2-2-2-0--2/32-0--------- x6
D--------------------------
A--------------------------
E--------------------------

                        A
I laughed and shook his hand,		Смеясь, простился с ним.
                  D
Made my way back home,			В путь ушел домой
                         A
I searched from farther land,		И вновь стал одержим
                      F
Years and years I roamed,		Той, родной землей.
                      C
I gazed all gazers there,		Годами я бродил,
                     A         
We walked a million hills --            Проверил (измерил) сеть дорог -
                D
I must have died alone,	        	Но я не умер вновь
                    C
А long long time ago.			Один, давным-давно (и все равно)

Chorus:
C
Who knows, not me,			Вы что, не я!
  C#             C
I never lost control,			Контроль – мой командир.
C
Your face, to face,			Лицом к лицу
         C#
With the man who sold the world.	Ты с тем, кто продал мир.

Intro: (with mild distortion)
E--------------------------
B--------------------------
G--2-2-2-0--2/32-0--------- x6
D--------------------------
A--------------------------
E--------------------------

Chorus:
C
Who knows, not me,			Вы что, не я!
  C#             C
I never lost control,			Контроль – мой командир.
C
Your face, to face,			Лицом к лицу
         C#
With the man who sold the world.	Ты с тем, кто продал мир.

Outro = intro: (with mild distortion)
E--------------------------
B--------------------------
G--2-2-2-0--2/32-0--------- x6
D--------------------------
A--------------------------
E--------------------------

Комментарий автора:

Автор перевода Юран Пронкин.
 
 

Видео