Nirvana - Son of a Gun, аккорды

Прокрутка
Тональность
Шрифт
100
Intro:
e-----------------------------
B-------2---2--2--------------
G-------2---2--2-----4---4--4-
D-------0---0--0-----2---2--2-
A--------------------2---2--2-
E--------------------0---0--0-

--------------------------
----3--3--3--3------------
----2--2--2--2----4--4--4-
----0--0--0--0----2--2--2-
------------------2--2--2-
------------------0--0--0-

Rhythm Figure 1:
-----------------------------
-------2---2--2--------------
-------2---2--2-----4---4--4-
-------0---0--0-----2---2--2-
--------------------2---2--2-
--------------------0---0--0-

--------------------------
--3---3--3----------------
--2---2--2-----4--4--4--4-
--0---0--0-----2--2--2--2-
---------------2--2--2--2-
---------------0--0--0--0-

Verse: Rhythm Figure 1
A       E            D               E
Up, up, up and down, turn, turn, turnaround,
A             E              D    E
Round, round, roundabout and over again.
A         E             D           E
Gun, gun, son of a gun, you are the only one,
A              E             D      E
That makes any difference to what I say.

Rhythm Figure 2:
------------------------------------------------  
------------------------------------------------ 
----------------------5---5--5--5---5--5--5-----  
-5---5--5--5--5--5----5---5--5--5---5--5--5----- 
-5---5--5--5--5--5----3---3--3--3---3--3--3-----  
-3---3--3--3--3--3------------------------------ 
                               
------------------------------------------------  
------------------------------------------------ 
--7----7--7--7---7--7--7--5--5--5--5--5--5------  
--7----7--7--7---7--7--7--5--5--5--5--5--5------ 
--5----5--5--5---5--5--5--3--3--3--3--3--3--0---  
--------------------------------------------0--- 

Chorus: Rhythm Gigure 2
G5                C5      D5        C5
Sun shines in the bedroom, when we play,
G5          C5             D5           C5
The raining always starts, when you go away.

Interlude:
------------------------------------------------  
------------------------------------------------ 
------------------------/7--7--7--7--7--7--7--7- 
--5---5--5--5--5--5--5--/7--7--7--7--7--7--7--7-  x2
--5---5--5--5--5--5--5--/5--5--5--5--5--5--5--5- 
--3---3--3--3--3--3--3-------------------------- 

------------------------------------------------  
------------------------------------------------ 
------------------------/9--9--9--9--9--9--9--9-  
--7---7--7--7--7--7--7--/9--9--9--9--9--9--9--9-  x2
--7---7--7--7--7--7--7--/7--7--7--7--7--7--7--7-  
--5---5--5--5--5--5--5-------------------------- 

------------------------------------------------  
------------------------------------------------ 
------------------------/7--7--7--7--7--7--7--7- 
--5---5--5--5--5--5--5--/7--7--7--7--7--7--7--7-  x4
--5---5--5--5--5--5--5--/5--5--5--5--5--5--5--5- 
--3---3--3--3--3--3--3-------------------------- 

End:           
-------
-------
-------
---5---
---5---
---3---
 
 

Видео