Nirvana - Aero Zepplin (btab), аккорды

Прокрутка
Тональность
Шрифт
100
    Rhythm fig. 1:
    G:-------------------------------------|
    D:-------------------------------------|
    A:-------------------------------------| x8
    E:0-0------0-0------0-0------0-0-------|

    Rhythm fig. 2:
    G:-------------------------------------------------|
    D:------------0-0-0-0-2----------------------------|
    A:2-2-2-2-2-2-----------4-----3-----2-----1--------| x4
    E:------------------------4-4---3-3---2-2---1-1----|

    Rhythm fig. 3:
    G:------------------------------|
    D:------------------------------|
    A:4-----3-----2-----1-----------| x3
    E:--4-4---3-3---2-2-------------|

    Rhythm fig. 4:
    G:-------------------------------------------------|
    D:-------------------------------------------------|
    A:-------------------------------------------------| x2
    E:0-0---5-5-4-0-5-4---0-0---5-5-4-0-5-4------------|

    Rhythm fig. 5:
    G:-------------------------------------------------|
    D:-------------------------------------------------| x2
    A:-------------------------------------------------|
    E:0---6---0---3---0---6---0---3--------------------|

    Repeat Rythm figs. 2-5

    Solo:
    G:----3---3-----------------------------------------|
    D:2-2---2-------------------------------------------| x18
    A:--------------------------------------------------| 
    E:----------001223----------------------------------|

    Rhen Rhythm figs. 2 and 3, then Rhythm fig. 1 
 
 

Видео