Nirvana - Been A Son, аккорды

Прокрутка
Тональность
Шрифт
100
Verses:
                        ^-upstroke this one (all others down)
E---0--0-----------0---(0)--0--------|
B---3--3-----------3---(3)--3--------|
G---2--2-----------2---(2)--2--------| } many times
D---0--0-----------0---(0)--0--------|
A---0--0---3-2-0---0---(0)--0---3-2-0|
D---0--0-----------0---(0)--0--------|

Chorus:
E-------------------------
B-------------------------
G------------------------- Repeat
D---5-5--3--X-2--2--------
A---5-5--3--X-2--2--3-2-0-
D---5-5--3--X-2--2--------

Solo:
G--6-6--4-3-1/6--6-6--4-3-1- repeat a couple times 

Then:
G|--/4-4--2--2-1--1-1-1-0-1-0--1/4--4--2--2-1--1-1-1-0-1-0-
 
 

Видео