Nirvana - Cocaine Girl, аккорды

Прокрутка
Тональность
Шрифт
100
Riff 1:
E|---------------------------------
B|---------------------------------
G|------7---9b10---7-------7-----7-
D|--9-9---9----------9-6-6---7-7---
A|---------------------------------
E|---------------------------------

Riff 2:
E|---------------------
B|---------------------
G|------7-9b10p7-------
D|--9-9----------------
A|---------------------
E|---------------------

Fill 1:
e|----------------
b|--10b-10b-7-----
g|------------9-7-
d|----------------
a|----------------
e|----------------

Fill 2:
E|---------------
B|---------------
G|--9b10~--7b8r7-
D|---------------
A|---------------
E|---------------

Fill 3:
E|------------------
B|------------------
G|----7-7h9p7-------
D|--9---------9-7-9-
A|------------------
E|------------------

Fill 4:
E|----
B|----
G|----
D|--9-
A|----
E|----

Sоlо:
e|------------------------------------------
b|-12-12-12-10s7-----------7-10-10-10-12h15-
g|---------------9-7---7-9------------------
d|-------------------9----------------------

e|------------------------------------------
b|-12h15-12h15-12h15-15-12-10-12-10-7-------
g|------------------------------------9-7---
d|----------------------------------------9-

e|-----------------
b|-----------------
g|--7-9-9b10-7-----
d|-------------9-7-

Комментарий автора:

Order:
RIff 1 x7
RIff 2 x3
Fill 1 x1
Riff 2 x2
Fill 2 x1
Riff 1 x5
Riff 2 x3
Fill 3 x1
Riff 2 x2
Fill 4 x1
Sоlо
Riff 1 x7
Riff 2 x3
 
 

Видео