Nirvana - Come As You Are, аккорды

Прокрутка
Тональность
Шрифт
100
Intro/Verse:
----------------------------------
----------------------------------
----------------------------------
----------------------------------
------------0---0---0-------2--2--
--0--1-2-2----2---2---2-1-0--0----
'Come, as you are, as you were . . .'

Chorus:
------------------------------
-----------2-2-2-2-2-2-2-2----
-----------2-2-2-2-2-2-2-2----
--4-4-4-4--2-2-2-2-2-2-2-2----
--4-4-4-4---------------------
--2-2-2-2---------------------
'Memoria, Memoria . . . .'

Bridge:
---------------2-2-2-2-2-2--
---------------3-3-3-3-3-3--
--4-4-4-4-4-4--2-2-2-2-2-2--
--4-4-4-4-4-4---------------
--2-2-2-2-2-2---------------
----------------------------
'And I swear that I dont have a gun . . .'

Solo:
---------------------------------------------------------
---------------------------------------------------------
--6--9-11-11--6--9-11-11--6--9-11-11-13-13-13-11-9-9--6--
---------------------------------------------------------
---------------------------------------------------------
---------------------------------------------------------
 
 

Видео