Nirvana - Come As You Are, аккорды

Прокрутка
Тональность
Шрифт
100
Tune Down 1/2 a step

Intro:
e-----------------------------------------------|
b-----------------------------------------------|
g-----------------------------------------------|
d-----------------------------------------------|
a-------------0---0-------------2-------2--0----|
e--0--0--1--2---2----2--2--1--0---0--0--------1-|

e--------------------------------------|
b--------------------------------------|
g--------------------------------------|
d--------------------------------------|
a----0----0----0------2---------2------|
e--2---2----2----1--0----0---0----0--1-|

e----------------------------------------------------------------------------|
b----------------------------------------------------------------------------|
g----------------------------------------------------------------------------|
d----------------------------------------------------------------------------|
a----0---0-------------2--------2---------0-----0-------------2-------2------|
e--2---2----2--2--1--0----0--0----0--1--2----2-----2--2--1--0----0--0---0--1-|

Verse:
e----------------------------------------|
b----------------------------------------|
g----------------------------------------| x7, then
d----------------------------------------|
a----0----0--------------2--------2------|
e--2----2----2--2--1--0----0--0-----0--1-|

e---------------------------------0--0-------|
b---------------------------------0--0-------|
g---------------------------------1--1-------|
d--------------------------------------------|
a-----0----0------------2--------------------|
e--2----2----2--2--1--0----0------------0--1-|

Chorus:
e----------------------------0--------------------0---0------------------|
b----------------------2-----2---2--2-------------0------0-----2-2--2--2-|
g-------------------2--2--2--2---2--2--------------------------2-2--2--2-|
d--4---4---4--4-----2--2--2---------0-------4--4---------------2-2--2--2-|
a--4---4---4--4--0--0-----0------------0----4--4-------------0------0----|
e--2---2---2--2--0---------------------0----2--2-------------------------|

e--------------------------------------------------------------------------|
b--------------------2--2--2----2--2--2-------0--0-----0-------------------|
g--------4--4--4-----2--2--2----2--2--2-------0--0---0---0---2--2--2--2--2-|
d--------4--4--4-----2--2--2----2--2--2----4-----------------2--2--2--2--2-|
a------------------0----0--0----0--0--0----4-----------------2--2--2--2--2-|
e--2--2------------------------------------2-----------------0--0--0--0--0-|

e----------|
b----------|
g----------|
d----------|
a----------|
e--0--0--1-|

Bridge:
e---------------------0--0--0-0--0-0-|
b------------------0--3--3--3-3--3---|
g--4--4--4--4-4-4--0--2--2-------2---| x3. then
d--4--4--4--4-4-4--0--0--0-------0---|
a--2--2--2--2-2-2--0-----------------|
e------------------------------------|

e---------------------0--0--0--0-----------|
b------------------0--3--3--3--3-----------|
g--4--4--4--4-4-4--0--2--2-----2-----------|
d--4--4--4--4-4-4--0--0--0-----0-----------|
a--2--2--2--2-2-2--0-----------------------|
e----------------------------------0--0--1-|

Guitar 1:
e--------------------------------------------------------------------------|
b-------------------------------------------------------------0----x--x--x-|
g-------------------------------------------------------------2----6--6--6-|
d------------------------------2-----0------0---0--0-----------------------|
a----0----0------------2--2-----------------------------2------------------|
e--2----2---2--2--1--0------0-----0----1--2-----------0----0---------------|

Solo:
e-----------------------------------------------------------------------------|
b------0--0--0--0----------0----0--0----------0----0--0--------0-----------0--|
g--6---9--9-11-116--6--6--9---11-116--6--6--9---11-11/13-13-11-11--9--9--0----|
d-----------------------------------------------------------------------------|
a-----------------------------------------------------------------------------|
e-----------------------------------------------------------------------------|

e-----------------------------------------------------------------------------|
b--0-----0---0--0-0--------0---0--0----0-----0---0--0-----0-----0-------0--0--|
g--6--6--9--11-116--6--6--9--11-116--6--6--9--11-11/13-13-13-11-11-9--9--6----|
d-----------------------------------------------------------------------------|
a-----------------------------------------------------------------------------|
e-----------------------------------------------------------------------------|

e-----------------------------------------------------------------------------|
b---0-----0---0----0--------0---0----0--------0------0-------0------0--0----0-|
g---6--6--9--11-116--6--6--9--11-116--6--6--9--9--11-11/13---13--11--9--9-----|
d-----------------------------------------------------------------------------|
a-----------------------------------------------------------------------------|
e-----------------------------------------------------------------------------|

e-------------------------------------------------------------------------|
b---0-----0---0--------------0---0--0----------0---0--0-----------0--0--0-|
g---6--6--9--11--116--6--6--9--11-116--6--6--9--11-11/13-13-13-11--0--0---|
d-------------------------------------------------------------------------|
a-------------------------------------------------------------------------|
e-------------------------------------------------------------------------|

Outro (guitar 1):
e-----------------------------------------------------------------------------|
b-----------------------------------------------------------------------------|
g-----------------------------------------------------------------------------|
d--------0---0-----------------2---------0--------------------------2---0-----|
a----0--------------2-------------------------0-------------2-----------------|
e--2---2---2---1--0---0--0--0----0--1--2----2---2--2--1--0----0--0----0----1--|

e-----------------------------------------------------------------------------|
b-----------------------------------------------------------------------------|
g-----------------------------------------------------------------------------|
d----------0---0-----------------2----------------0-----------------2----2----|
a-----0----------------2--------------------0---0------------2-----------2----|
e--2-----2---2---1--0----0--0--0---0--1--2----2------2--1--0---0--0---0--0--1-|

End:
e--0-|
b--0-|
g--x-|
d--4-|
a--4-|
e--2-|
 
 

Видео