Nirvana - Dive, аккорды

Прокрутка
Тональность
Шрифт
100
Main Riff: until the chorus
G|-----------------------
D|-----------------2-2-2-
A|------1/2---1/2---------
E|-2-0-2^2-0-2^2-0-0------

Chorus:
G|--------------------------------------------
D|--------------------------------------------
A|-2--2-2-4--4-4-5--5-5--7-7---- 1/2---1/2----
E|--------------------------2-0-2^2-0-2^2-0-0-

Bass Solo:
G|-------------------------
D|-8-6-8^8-6-8^8-6-6-------
A|-------------------7-7-7-
E|-------------------------
 
 

Видео