Nirvana - Heart-Shaped Box, аккорды

Прокрутка
Тональность
Шрифт
100
Intro (Clean):
eb|--------------------------------------------|
Bb|--------------------------------------------|
Gb|--------------------------------------------|
Db|---------7------------------3---------------|
Ab|------7-----7------------3-----3------------|
Db|---7------------------3---------------------|

eb|--------------------------------------------|
Bb|--------------------------------------------|
Gb|--------------------------------------------|
Db|---------0-----0----------------------------|
Ab|------0-----0------0------------------------|
Db|---0----------------------------------------|

eb|--------------------------------------------|
Bb|--------------------------------------------|
Gb|--------------------------------------------|
Db|---------7------------------3---------------|
Ab|------7-----7------------3-----3------------|
Db|---7------------------3---------------------|

eb|--------------------------------------------|
Bb|--------------------------------------------|
Gb|--------------------------------------------|
Db|-------3/4-----4--------0-------------------|
Ab|------------3-----3-3-----------------------|
Db|---0----------------------------------------|

Verse (Clean):
eb|--------------------------------------------|
Bb|--------------------------------------------|
Gb|--------------------------------------------|
Db|---------7------------------3---------------|
Ab|------7-----7------------3-----3------------|
Db|---7------------------3---------------------|

eb|--------------------------------------------|
Bb|--------------------------------------------|
Gb|--------------------------------------------|
Db|---------0-----0----------------------------|
Ab|------0-----0------0------------------------|
Db|---0----------------------------------------|

eb|--------------------------------------------|
Bb|--------------------------------------------|
Gb|--------------------------------------------|
Db|---------7------------------3---------------|
Ab|------7-----7------------3-----3------------|
Db|---7------------------3---------------------|

eb|--------------------------------------------|
Bb|--------------------------------------------|
Gb|--------------------------------------------|
Db|-------3/4-----4--------0-------------------|
Ab|------------3-----3-3-----------------------|
Db|---0----------------------------------------| x4

(it varies each time from:
eb|--------------------------------------------|
Bb|--------------------------------------------|
Gb|--------------------------------------------|
Db|-------3/4-----4--------0-------------------|
Ab|------------3-----3-3-----------------------|
Db|---0----------------------------------------|  

To:
eb|--------------------------------------------|
Bb|--------------------------------------------|
Gb|--------------------------------------------|
Db|-------4--4--4--4-------0-------------------|
Ab|-------------------3-3----------------------|
Db|---0----------------------------------------|   

Chorus (Distortion):
eb|-----------------------------------------------|
Bb|-----------------------------------------------|
Gb|---------------------3b4--------------------3b4|
Db|---7--7--9b10--3--3-------0--0--0--0--0--0-----|
Ab|---7--7--------3--3-------0--0--0--0--0--0-----|
Db|---7--7--------3--3-------0--0--0--0--0--0-----| x4

Then to: 
eb|-----------------------------------------------|
Bb|-----------------------------------------------|
Gb|------------------------3b4--------------------|
Db|---3-3-3-3-3-3-3-3--0--------------------------|
Ab|---3-3-3-3-3-3-3-3--0--------------------------|
Db|---3-3-3-3-3-3-3-3--0--------------------------|  

eb|-----------------------------------------------|
Bb|-----------------------------------------------|
Gb|-----------------------------------------------|
Db|---3-3-3-3-3-3-3-3--0---4--4--4--4-------0-----|
Ab|---3-3-3-3-3-3-3-3--0--------------3--3--------|
Db|---3-3-3-3-3-3-3-3--0--------------------------|  

Verse (Clean):
eb|--------------------------------------------|
Bb|--------------------------------------------|
Gb|--------------------------------------------|
Db|---------7------------------3---------------|
Ab|------7-----7------------3-----3------------|
Db|---7------------------3---------------------|

eb|--------------------------------------------|
Bb|--------------------------------------------|
Gb|--------------------------------------------|
Db|---------0-----0----------------------------|
Ab|------0-----0------0------------------------|
Db|---0----------------------------------------|

eb|--------------------------------------------|
Bb|--------------------------------------------|
Gb|--------------------------------------------|
Db|---------7------------------3---------------|
Ab|------7-----7------------3-----3------------|
Db|---7------------------3---------------------|

eb|--------------------------------------------|
Bb|--------------------------------------------|
Gb|--------------------------------------------|
Db|-------3/4-----4--------0-------------------|
Ab|------------3-----3-3-----------------------|
Db|---0----------------------------------------| x4

Chorus (Distortion):
eb|-----------------------------------------------|
Bb|-----------------------------------------------|
Gb|---------------------3b4--------------------3b4|
Db|---7--7--9b10--3--3-------0--0--0--0--0--0-----|
Ab|---7--7--------3--3-------0--0--0--0--0--0-----|
Db|---7--7--------3--3-------0--0--0--0--0--0-----| x6

Then to: 
eb|-----------------------------------------------|
Bb|-----------------------------------------------|
Gb|------------------------3b4--------------------|
Db|---3-3-3-3-3-3-3-3--0--------------------------|
Ab|---3-3-3-3-3-3-3-3--0--------------------------|
Db|---3-3-3-3-3-3-3-3--0--------------------------|  

eb|-----------------------------------------------|
Bb|-----------------------------------------------|
Gb|-----------------------------------------------|
Db|---3-3-3-3-3-3-3-3--0---4--4--4--4-------0-----|
Ab|---3-3-3-3-3-3-3-3--0--------------3--3--------|
Db|---3-3-3-3-3-3-3-3--0--------------------------|

Solo:
eb|----------------------------------------------------|
Bb|--------10b11b10------8b9b8------6b7b6--------------|
Gb|----------------------------------------7-5-4-------|
Db|-7--7------------5--5--------3--3--------------7--7-|
Ab|-----------------------------------------------7--7-|
Db|-----------------------------------------------7--7-|  

Verse (Clean):
eb|--------------------------------------------|
Bb|--------------------------------------------|
Gb|--------------------------------------------|
Db|---------7------------------3---------------|
Ab|------7-----7------------3-----3------------|
Db|---7------------------3---------------------|

eb|--------------------------------------------|
Bb|--------------------------------------------|
Gb|--------------------------------------------|
Db|---------0-----0----------------------------|
Ab|------0-----0------0------------------------|
Db|---0----------------------------------------|

eb|--------------------------------------------|
Bb|--------------------------------------------|
Gb|--------------------------------------------|
Db|---------7------------------3---------------|
Ab|------7-----7------------3-----3------------|
Db|---7------------------3---------------------|

eb|--------------------------------------------|
Bb|--------------------------------------------|
Gb|--------------------------------------------|
Db|-------3/4-----4--------0-------------------|
Ab|------------3-----3-3-----------------------|
Db|---0----------------------------------------| x4

Chorus (Distortion):
eb|-----------------------------------------------|
Bb|-----------------------------------------------|
Gb|---------------------3b4--------------------3b4|
Db|---7--7--9b10--3--3-------0--0--0--0--0--0-----|
Ab|---7--7--------3--3-------0--0--0--0--0--0-----|
Db|---7--7--------3--3-------0--0--0--0--0--0-----| x6

Then to: 
eb|-----------------------------------------------|
Bb|-----------------------------------------------|
Gb|------------------------3b4--------------------|
Db|---3-3-3-3-3-3-3-3--0--------------------------|
Ab|---3-3-3-3-3-3-3-3--0--------------------------|
Db|---3-3-3-3-3-3-3-3--0--------------------------|  

eb|-----------------------------------------------|
Bb|-----------------------------------------------|
Gb|-----------------------------------------------|
Db|---3-3-3-3-3-3-3-3--0---4--4--4--4-------0-----|
Ab|---3-3-3-3-3-3-3-3--0--------------3--3--------|
Db|---3-3-3-3-3-3-3-3--0--------------------------|

Chorus ending first line played 4 times followed by second line 

End with some feedback and a slide (just listen to the cd).

Комментарий автора:

Lyrics:
She eyes me like a pisces when I am weak
I've been locked inside your Heart-Shaped box for weeks
I was drawn into your magnet tar pit trap
I wish I could eat your cancer when you turn back
Hey
Wait
I've got a new complaint
Forever in debt to your priceless advice
Hey
Wait
I've got a new complaint
Forever in debt to your prieless advice
Hey
Wait
I've got a new complaint
Forever in debt to your priceless advice
Meat-eating orchids forgive no one just yet
Cut myself on angel hair and baby's breath
Broken hymen of your highness I'm left black
Throw down your umbilical noose so I can climb right back
 
 

Видео