Nirvana - Help Me, аккорды

Прокрутка
Тональность
Шрифт
100
The bass chords in the verse: G F A E 

Chorus:
e|--------------|----------------|
B|--------------|----------------|
G|--------------|----------------|
D|-5-5-5-3------|-7-7-7-5--3-3-3-|
A|-5-5-5-3------|-7-7-7-5--3-3-3-|
E|-3-3-3-1--0-0-|-5-5-5-3--1-1-1-|

Somewhere in the 3rd verse Kurt plays the same as Krist so:
G5    F5        A5     E5
e|----------------|----------------|
B|----------------|----------------|
G|----------------|----------------|
D|-5-5-5-3--3-3-0-|-7-7-7-2--2-2-0-|
A|-5-5-5-3--3-3-0-|-7-7-7-2--2-2-0-|
E|-3-3-3-1--1-1-0-|-5-5-5-0--0-0-0-|
 
 

Видео