Nirvana - Here She Comes Now, аккорды

Прокрутка
Тональность
Шрифт
100
Intro:
e|-------------------------------------------
B|-----7------7-------------12----------10---
G|---7---7--7---7--7----11-----11-----9----9-
D|-0------------------0------------0---------
A|-------------------------------------------
E|-------------------------------------------

Verse:
e|-----------------------------------------
B|-----------------------------------------
G|-7-7-77-----(Play the whole way through)-
D|-----------------------------------------
A|-----------------------------------------
E|-----------------------------------------

Chorus:
e|-0--0--0--0--0--3--3--3--3--3-
B|-3--3--3--3--3--0--0--0--0--0-
G|-2--2--2--2--2--0--0--0--0--0-
D|-0--0--0--0--0--0--0--0--0--0-
A|-0--0--0--0--0--2--2--2--2--2-
E|----------------3--3--3--3--3-

e|-6------------------
B|-6------------------
G|-7--(Play 12 Times)-
D|-8------------------
A|-8------------------
E|-6------------------

Комментарий автора:

The song is tuned down a full step.
 
 

Видео