Nirvana - If You Must, аккорды

Прокрутка
Тональность
Шрифт
100
Verse 1:
e----------------------------------------------------------
B----------------------------------------------------------
G-------3--------2---------3---------2---------3---------2-
D-------3--------2---------3---------2---------3---------2-
A-------1------------------1-------------------1-----------
E----------------------------------------------------------

Chorus:
-----------------------------------------------------------
-----------------------------------------------------------
-------3------------------3--------------------3-----------
-------3--------2---------3----------2---------3---------2-
-------1--------2---------1----------2---------1---------2-
----------------2--------------------2-------------------2-

Verse 2:
----------------------------------------------------------
----------------------------------------------------------
----------------------------------------------------------
-------5--------2--------5-----------2--------5---------2-
-------5--------2--------5-----------2--------5---------2-
-------5--------2--------5-----------2--------5---------2-

Bridge:
-----------------------------------------------------------
-----------------------------------------------------------
-------9-----------------------------9---------------------
-------9-------9---------8-----------9---------9---------8-
-------7-------9---------8-----------7---------9---------8-
---------------9---------8---------------------9---------8-
 
 

Видео