Nirvana - Marijuana (btab), аккорды

Прокрутка
Тональность
Шрифт
100
Intro:
G|--------|--------|--------|
D|--------|--------|--------|
A|--------|--------|--------|
E|--0--2--|--0--2--|--0--2--|

Verse:
G|--------|
D|--------| x4
A|--------|
E|--0--2--|

G|-----------------|
D|-----------------|
A|-----------------|
E|-0-0-0-0-3-3-3-3-|

G|--------|
D|--------| 
A|--------| x4
E|--0--2--|

G|-----------------|
D|-----------------|
A|-----------------|
E|-0-0-0-0-3-3-3-3-|

Chorus:
G|--------|
D|--------| x8
A|--------|
E|--0--2--|

Verse 2:
G|--------|
D|--------|
A|--------| x4
E|--0--2--|

G|-----------------|
D|-----------------|
A|-----------------|
E|-0-0-0-0-3-3-3-3-|

G|--------|
D|--------| 
A|--------| x4
E|--0--2--|

G|-----------------|
D|-----------------|
A|-----------------|
E|-0-0-0-0-3-3-3-3-|

Chorus 2:
G|--------|
D|--------|
A|--------| x22
E|--0--2--|

Outro:
G|------------|
D|------------|
A|------------| x10
E|--0--2-/----|

G|--------|
D|--------|
A|--------| x4
E|--0--2--|
 
 

Видео