Nirvana - Moist Vagina, аккорды

Прокрутка
Тональность
Шрифт
100
Verse:
 N.C.
e|-----------0------------------0-------------------0------------------0-
B|-----------0------------------0-------------------0------------------0-
G|-----------------------------(0)---------------------------------------
D|-----------------------------------------------------------------------
A|-----------------------------------------------------------------------
E|-0----2----------0-----2---------------0----2--------------0-----2-----

Bassline:
G|-----------------------------------------------------------------------|
D|-----------------------------------------------------------------------|
A|-----------------------------------------------------------------------|
E|-0-----2-------------0-----2---------------0----2--------------0-----2-|

  A                                  C
e|------------------------------------------------------------------
B|-2---2-----2---2---2---2---2---2----5--5---5---5---5----5---5---5-
G|-2---2-----2---2---2---2---2---2----5--5---5---5---5----5---5---5-
D|-2---2-----2---2---2---2---2---2----5--5---5---5---5----5---5---5-
A|-0---0-----0---0---0---0---0---0----3--3---3---3---3----3---3---3-
E|------------------------------------------------------------------

G|------------------------------------------------------------------|
D|------------------------------------------------------------------|
A|------------------------------------3--3---3---3---3----3---3---3-|
E|-5---5-----5---5---5---5---5---5----------------------------------|

Chorus: (repeats over and over)
  E5     G#5
e|--------------------------------
B|--------------------------------   
G|--------------------------------
D|-2--x----4---4---x----2----4--4-
A|-2--x----4---4---x----2----4--4-
E|-0--x----2---2---x----0----2--2-

G|---------------------------------|
D|---------------------------------|
A|---------------------------------|
E|-0--x----2---2---x----0----2--2--|
 
 

Видео