Nirvana - Negative Creep, аккорды

Прокрутка
Тональность
Шрифт
100
Verse:
G|----------------------------
D|----------------------------
A|----------------------------
D|-12-12-12-12-12-12-12-12-12-

G|--------------------
D|--------------------
A|--------------------
D|-0-0-0-0-0-0-0-0/12-

Chorus:
G|--------------------------
D|--------------------------
A|-7-7p5----------5-8-8-8-8-
D|------7-7-7-7-6-7---------

Bridge:
G|--------------------------------------------------
D|-------------------------1/2-----------------1/2--
A|------------------------17^17---------------17^17-
D|-16-16-16-16-16-16-16-16-----5-5-5-5-5-5-5-5------

Комментарий автора:

Tunde in Dropped D Flat.
 
 

Видео