Nirvana - On A Plain, аккорды

Прокрутка
Тональность
Шрифт
100
Tune your guitar: [DbAbDbGbBbEb]

Verse:
e|-----------------------------------------------------------------------|
B|-7--7-7------------------------------7--7-7----------------------------|
G|-7--7-7--7--7-7----------------------7--7-7--7--7-7--------------------|
D|-7--7-7--7--7-7----------------------7--7-7--7--7-7--------------------|
A|-5--5-5--5--5-5--0--3--3-0-2-0-2-0---5--5-5--5--5-5--0--3--3-0-2-3-2-0-|
E|---------5--5-5--0--3--3-0-2-0-2-0-----------5--5-5--0--3--3-0-2-3-2-0-|

|-----------------------------------------------------------------------|
|-7--7-7--5--5-5-5--4--4-4--2--2-2-----7--7-7---------------------------|
|-7--7-7--5--5-5-5--4--4-4--2--2-2-----7--7-7--7-7-7--------------------|
|-7--7-7--5--5-5-5--4--4-4--2--2-2--0--7--7-7--7-7-7--------------------|
|-5--5-5--3--3-3-3--2--2-2--0--0-0--0--5--5-5--5-5-5--0--3--3-0-2-3-2-0-|
|----------------------------------------------5-5-5--0--3--3-0-2-3-2-0-|

Chorus:
|-----------------------------------------|
|-7--7-7-----------10--10--10-10-10-10----|
|-7--7-7--7--7-7---10--10--10-10-10-10----|
|-7--7-7--7--7-7---10--10--10-10-10-10--0-|
|-5--5-5--5--5-5----8---8---8--8--8--8--0-|
|---------5--5-5----8---8---8--8--8--8--0-|

Bridge:
|----------------------------------------------------------|
|----------------------------------------------------------|
|-----------------------------------2--2---0---------------|
|-------3---3---------2----2------2-----2---------5----5---|
|----3----3--3------2---2----2--0---------------5------5---|
|-3--------------2----------------------------5----------0-|

Last time through:
-----------------------------------------------------------|
------------------------------2-----2--0-------------------|
------------------------------2-----2----------------------|
-----3---3-------2----2-----2-----2------5-5-5-5-5-5-5-5-5-|
---3---3---3---2----2---2--0-------------5-5-5-5-5-5-5-5-5-|
-3-----------2---------------------------5-5-5-5-5-5-5-5-5-|

End on:
-------|
-------|
---7---|
---7---|
---5---|
---0---|
 
 

Видео