Nirvana - On The Mountain, аккорды

Прокрутка
Тональность
Шрифт
100
Nirvana
On the mountain/You've got no right
    -----------------------------------

riff 1                  
G----------------------|
D----------------------|
A--5-7-----7-5-7-----7-|
E------0-0-------0-0---|
 
riff 2
G-------------------------|---------------------------------||
D-------------------------|---------------------------------||
A-3-3-3-3-3-3-3-3-3-3-3-3-|-5-5-5-5-5-5-5-5-5-5-5-5-5-5-5-5-||                                                         
E-------------------------|---------------------------------||


 riff 3                                                  
G----------------------|-------------------------------|
D----------------------|-------------------------------|
A-5-7-----7------------|-5-7-----7--------/10-10-10-10-|
E-----0-0---/3-3-3-3-3-|-----0-0---/3-3-3--------------|
 
G--------------------------|
D--------------------------|                              
A-5-7-----7----------------|
E-----0-0---/5-5-5-5-5-5-5-|


G--------------------------|
D--------------------------|
A-5-7-----7----------------|
E-----0-0---/5-5-5-5-5-5-5-|