Nirvana - Scentless Apprentice, аккорды

Прокрутка
Тональность
Шрифт
100
D#||------------------|------------------|--0--0--1-1--1-2-2-2-2-3/--19-|
A#||------------------|------------------|--0--0--0-0--0-0-0-0-0-0---0--|
F#||------------------|------------------|------------------------------|
C#||------------------|------------------|------------------------------|
G#||------------------|------------------|------------------------------|
C#||------------------|------------------|------------------------------|
                                                             
--0--0--1-1--1-2-2-2-2-3/--19-|--0--0--1-1--1-2-2-2-2-3/--19-|
--0--0--0-0--0-0-0-0-0-0---0--|--0--0--0-0--0-0-0-0-0-0---0--|
------------------------------|------------------------------|
------------------------------|------------------------------|
------------------------------|------------------------------|
------------------------------|------------------------------|
                                                              
--0--0--1-1--1-2-2-2-2-3/--19-|------------------------------|
--0--0--0-0--0-0-0-0-0-0---0--|------------------------------|
------------------------------|------------------------------|
------------------------------|------------------------------|
------------------------------|--4--4--2-4--4-4-4-4-4-2-4--4-|
------------------------------|--4--4--2-4--4-4-4-4-4-2-4--4-|
                                                              
------------------------------|------------------------------|
------------------------------|------------------------------|
------------------------------|------------------------------|
------------------------------|------------------------------|
--4--4--2-4--4-4-4-4-4-2-4--4-|--4--4--2-4--4-4-4-4-4-2-4--4-|
--4--4--2-4--4-4-4-4-4-2-4--4-|--4--4--2-4--4-4-4-4-4-2-4--4-|
                                                                   
------------------------------||----------------------------------|
------------------------------||---4--4-4-4-4-4b4b4b4b4b4b4b4b4b4b|
------------------------------||*---------------------------------|
------------------------------||*---------------------------------|
--4--4--2-4--4-4-4-4-4-2-4--4-||----------------------------------|
--4--4--2-4--4-4-4-4-4-2-4--4-||----------------------------------|

                               2x                                  
-------------------------------||---------------------------------|
-------------------------------||--4--4-4-4-4-4b4b4b4b4b4b4b4b4b4b|
------------------------------*||---------------------------------|
------------------------------*||---------------------------------|
--4--4--2-4--4-4-4-4-4-2-4--4--||---------------------------------|
--4--4--2-4--4-4-4-4-4-2-4--4--||---------------------------------|
                                                              
------------------------------|------------------------------|
------------------------------|------------------------------|
------------------------------|------------------------------|
------------------------------|------------------------------|
--4--4--2-4--4-4-4-4-4-2-4--4-|--3----3-3-3-3-3/5-5--5-5-5-5-|
--4--4--2-4--4-4-4-4-4-2-4--4-|------------------------------|
                                 
--------------------------------|
--------------------------------|
--------------------------------|
--------------------------------|
--5/7-7-7-7--7-7-7-8-8-8-8--8-8-|
--------------------------------|
                                                
-----------------------------------------------|
-----------------------------------------------|
-----------------------------------------------|
-----------------------------------------------|
--8/10-10-10-10--10-10-10/12-12-12-12/15-15-15-|
-----------------------------------------------|
                                                   
--------------------------------------------------|
--------------------------------------------------|
--------------------------------------------------|
--------------------------------------------------|
--1512-12-12-12-12-12-12-12-12-12-12b12b12b12b12b-|
--------------------------------------------------|

                                 3x                                2x
|---0--0--1-1--1-2-2-2-2-3/--19--||--------------------------------||
|---0--0--0-0--0-0-0-0-0-0---0---||--------------------------------||
|*------------------------------*||*------------------------------*||
|*------------------------------*||*------------------------------*||
|--------------------------------||---4--4--2-4--4-4-4-4-4-2-4--4--||
|--------------------------------||---4--4--2-4--4-4-4-4-4-2-4--4--||
                                                                  
-----------------------------||----------------------------------|
-----------------------------||---4--4-4-4-4-4b4b4b4b4b4b4b4b4b4b|
-----------------------------||*---------------------------------|
-----------------------------||*---------------------------------|
--4--4--2-4--4-4-4-4-4-2-4---||----------------------------------|
--4--4--2-4--4-4-4-4-4-2-4---||----------------------------------|

                               2x                                  
-------------------------------||---------------------------------|
-------------------------------||--4--4-4-4-4-4b4b4b4b4b4b4b4b4b4b|
------------------------------*||---------------------------------|
------------------------------*||---------------------------------|
--4--4--2-4--4-4-4-4-4-2-4--4--||---------------------------------|
--4--4--2-4--4-4-4-4-4-2-4--4--||---------------------------------|
                                                             
------------------------------|------------------------------|
------------------------------|------------------------------|
------------------------------|------------------------------|
------------------------------|------------------------------|
--4--4--2-4--4-4-4-4-4-2-4--4-|--3----3-3-3-3-3/5-5--5-5-5-5-|
--4--4--2-4--4-4-4-4-4-2-4--4-|------------------------------|
                                 
--------------------------------|
--------------------------------|
--------------------------------|
--------------------------------|
--5/7-7-7-7--7-7-7-8-8-8-8--8-8-|
--------------------------------|
                                                
-----------------------------------------------|
-----------------------------------------------|
-----------------------------------------------|
-----------------------------------------------|
--8/10-10-10-10--10-10-10/12-12-12-12/15-15-15-|
-----------------------------------------------|
                                                   
--------------------------------------------------|
--------------------------------------------------|
--------------------------------------------------|
--------------------------------------------------|
--1512-12-12-12-12-12-12-12-12-12-12b12b12b12b12b-|
--------------------------------------------------|

                                 3x                                          
|---0--0--1-1--1-2-2-2-2-3/--19--||--------------------|--------------------|
|---0--0--0-0--0-0-0-0-0-0---0---||--------------------|--------------------|
|*------------------------------*||--12b---------------|--------------------|
|*------------------------------*||--------------------|--12----------------|
|--------------------------------||--------------------|--12----------------|
|--------------------------------||--------------------|--------------------|
                                                               
--------------------|--------------------|--------------------|
--15----------------|--------------------|--------------------|
--12----------------|--14b---------------|--15----------------|
--13b---------------|--15b---------------|--------------------|
--------------------|--12b---------------|--------------------|
--------------------|--------------------|--------------------|
                                                               
--------------------|--------------------|--------------------|
--------------------|--------------------|--------------------|
--15r---------------|--15r---------------|--15r---------------|
--14----------------|--14----------------|--14----------------|
--------------------|--------------------|--------------------|
--------------------|--------------------|--------------------|

                                 3x                               
|---0--0--1-1--1-2-2-2-2-3/--19--||------------------------------|
|---0--0--0-0--0-0-0-0-0-0---0---||------------------------------|
|*------------------------------*||------------------------------|
|*------------------------------*||------------------------------|
|--------------------------------||--4--4--2-4--4-4-4-4-4-2-4--4-|
|--------------------------------||--4--4--2-4--4-4-4-4-4-2-4--4-|
                                                              
------------------------------|------------------------------|
------------------------------|------------------------------|
------------------------------|------------------------------|
------------------------------|------------------------------|
--4--4--2-4--4-4-4-4-4-2-4--4-|--4--4--2-4--4-4-4-4-4-2-4--4-|
--4--4--2-4--4-4-4-4-4-2-4--4-|--4--4--2-4--4-4-4-4-4-2-4--4-|
                                                              
------------------------------|------------------------------|
------------------------------|------------------------------|
------------------------------|------------------------------|
------------------------------|------------------------------|
--4--4--2-4--4-4-4-4-4-2-4--4-|--3----3-3-3-3-3/5-5--5-5-5-5-|
--4--4--2-4--4-4-4-4-4-2-4--4-|------------------------------|
                                 
--------------------------------|
--------------------------------|
--------------------------------|
--------------------------------|
--5/7-7-7-7--7-7-7-8-8-8-8--8-8-|
--------------------------------|
                                                
-----------------------------------------------|
-----------------------------------------------|
-----------------------------------------------|
-----------------------------------------------|
--8/10-10-10-10--10-10-10/12-12-12-12/15-15-15-|
-----------------------------------------------|
                                                 
--------------------------------------------------|
--------------------------------------------------|
--------------------------------------------------|
--------------------------------------------------|
--1512-12-12-12-12-12-12-12-12-12-12b12b12b12b12b-|
--------------------------------------------------|

                                 3x                                3x
|---0--0--1-1--1-2-2-2-2-3/--19--||---0--0--1-1--1-2-2-2-2-3/--19--||
|---0--0--0-0--0-0-0-0-0-0---0---||---0--0--0-0--0-0-0-0-0-0---0---||
|*------------------------------*||*------------------------------*||
|*------------------------------*||*------------------------------*||
|--------------------------------||--------------------------------||
|--------------------------------||--------------------------------||
                                                           
-------------------|------------------|------------------||
-------------------|------------------|------------------||
-------------------|------------------|------------------||
-------------------|------------------|------------------||
--4----------------|------------------|------------------||
--4----------------|------------------|------------------||
 
 

Видео