Nirvana - Seasons In The Sun, аккорды

Прокрутка
Тональность
Шрифт
100
Main Riff:
E-------------|
B-----------3-|
D-------------|
G-------------|
A--3--3--3----|
E--2--2--2----|

Verse + Chorus + Bridge:
E---------1--1--1---------1--1--1---------2--2--2---------2--2--2-|
B-3--3--3---------3--3--3---------4--4--4---------4--4--4---------|
D-----------------------------------------------------------------|
G-----------------------------------------------------------------|
A-----------------------------------------------------------------|
E-----------------------------------------------------------------|
 
 

Видео