Nirvana - Serve The Servants, аккорды

Прокрутка
Тональность
Шрифт
100
Intro:
Eb-------------0-------14------------9--
Bb------------14------------14------9---
Gb-----------13-----------------------9-
Db----------12--------------------------
Ab---------11---------------------------
Eb--------0-----------------------------

Eb-----------------------------------------------
Bb------------------------------3----------------
Gb--------2------2-----------------------------3-
Db------1----------0---2-2-2-------2-2-------4---
Ab---2---------2-------------------------------4-
Eb---------------------------------------0-----2-

Eb-------0--0-------------------0---0-------
Bb-------0--0-------------------0---0-------
Gb------------------------------------------
Db------------4/5-----------------------2p0-
Ab------------4/5------2----------------2p0-
Eb----2---------------0-----0---------------

Eb---------------------------------------------
Bb----------------------------3----------------
Gb---------2----2----------------------------3-
Db-------1--------0----2-2-2-------2-2-------4-
Ab---2-2------2------------------------------4-
Eb--------------------------------------0----2-

Eb-------0--0-0--------------------0--0--------
Bb-------0--0-0--------------------0--0--------
Gb---------------------------------------------
Db----------------4/5----------------------2p0-
Ab----------------4/5------2---------------2p0-
Eb-----2------------------0--0--0--------------

Verse:
Eb---------------------------------------------
Bb---------0-----------------------3-----------
Gb-----------2-------2-------------------------
Db------1--------------0----2-2--2-------2-2---
Ab----2-----------2----------------------------
Eb-------------------------------------------0-
Teenage angst has paid off well

Eb--------------0-----0------------------------0-0----- 
Bb--------------0-----0------------------------0-0----- 
Gb-----------------------------------------------------
Db------4-----------------4/5----------------------2p0- 
Ab------4-----------------4/5-----------2----------2p0- 
Eb------2---2--------------------------0--0------------
Now I’m bored and old

Eb------------------------------------------
Bb------0-------------------------3---------
Gb--------2-------2-------------------------
Db----1--------------0---2-2-2------2---2---
Ab-2------------2---------------------------
Eb----------------------------------------0-
Self appointed judges judge                               

Eb--------------0--------------------0--0--------
Bb--------------0--------------------0--0--------
Gb-----------------------------------------------
Db----4--------------4/5---------------------2p0-
Ab----4--------------4/5-------2-------------2p0-
Eb----2------2-----------------0--0--------------
More than they have sold            

Eb-----------------------------------------------
Bb------------------------------------3----------
Gb----------2-------2----------------------------
Db---------------------0-----2--2--2------2--2---
Ab---2-2--2------2-------------------------------
Eb---------------------------------------------0-
If she floats then she is not                                                                  

Eb----------0--0-------------------0--0----------
Bb----------0--0-------------------0--0----------
Gb-----------------------------------------------
Db---4-------------4/5-----------------------2p0-
Ab---4-------------4/5------2----------------2p0-
Eb---2----2----------------0--0------------------
А witch like we’d thought                                                                          

Eb--------0---------------------------------
Bb--------0-----------------------3---------
Gb----------2-----2-------------------------
Db-----1--------------0---2--2--2-----2-2---
Ab--2----------2----------------------------
Eb----------------------------------------0-
А down pay ment on an other           
                                                                                                
Eb---------------0---0-------------0------------
Bb---------------0---0-------------0------------
Gb----------------------------------------------
Db---4------------------4/5---------------------
Ab---4------------------4/5----2----------------
Eb---2------2----------------0--0---------0---0-
One at Salem’s lot

Chorus:
Eb-----------------------------------------------
Bb------------------------6-6-6---6---6----------
Gb------------------0-----6-6-6---6---6----------
Db---7--7-7-7-7-----0-----6-6-6---6---6------7-7-
Ab---7--7-7-7-7-----------4-4-4---4---4------7-7-
Eb---5--5-5-5-5-------------------4---4------5-5-
Serve the servants oh no                                                                                               

Eb-----------------------------------------------
Bb------------------------6-6-6---6---6----------
Gb------------------0-----6-6-6---6---6----------
Db---7--7-7-7-7-----0-----6-6-6---6---6------7-7-
Ab---7--7-7-7-7-----------4-4-4---4---4------7-7-
Eb---5--5-5-5-5-------------------4---4------5-5-              
Serve the servants oh no                                                                                               

Eb-----------------------------------------------
Bb------------------------6-6-6---6---6----------
Gb------------------0-----6-6-6---6---6----------
Db---7--7-7-7-7-----0-----6-6-6---6---6------7-7-
Ab---7--7-7-7-7-----------4-4-4---4---4------7-7-
Eb---5--5-5-5-5-------------------4---4------5-5-
Serve the ser vants oh no                                                                                               

Eb------0--------------------------
Bb------0--------6--6--6----6----6-
Gb---------------6--6--6----6----6-
Db---7----7------6--6--6----6----6-
Ab---7----7------4--4--4----4----4-
Eb---5----5------------4----4----4-
Serve the servants That                                                                                                    

Eb---------------------------------------------
Bb---------------------------------------------
Gb------------------------------------------5--
Db----4--4---4----4---4---4---4-------------5--
Ab----4--4---4----4---4---4---4--------------5-
Eb----2--2---2---2---2----2---2----3--3------3-
Legendary divorce

Eb|-----------
Bb|----11~~~~-
Gb|----11-~~~~
Db|----10-~~~~
Ab|----9-~~~~-
Eb|-----------

Verse:
Eb---------------------------------------------
Bb---------0-----------------------3-----------
Gb-----------2-------2-------------------------
Db------1--------------0----2-2--2-------2-2---
Ab----2-----------2----------------------------
Eb-------------------------------------------0-
As my bones grew they did hurt                                               

Eb--------------0-----0------------------------0-0----- 
Bb--------------0-----0------------------------0-0----- 
Gb-----------------------------------------------------
Db------4-----------------4/5----------------------2p0- 
Ab------4-----------------4/5-----------2----------2p0- 
Eb------2---2--------------------------0--0------------
They hurt really bad

Eb------------------------------------------
Bb------0-------------------------3---------
Gb--------2-------2-------------------------
Db----1--------------0---2-2-2------2---2---
Ab-2------------2---------------------------
Eb----------------------------------------0-
I tried hard to have a father but in -

Eb---------------0--------0--------------0--0-------
Bb---------------0--------0--------------0--0-------
Gb--------------------------------------------------
Db---4----------------4-------5----------------2----
Ab---4----------------4-------5----2-----------2----
Eb---2------2---------------------0--0------------0-
- stead I had a dad

Eb---------------------------------------------------
Bb---------------------------------------3------3---- 
Gb-------------2-------2-----------------------------
Db-------------------------0----2--2--2------2------- 
Ab----2--2--2-------2--------------------------------
Eb-------------------------------------------------0-
I just want you to know that I 

Eb------------0-------------------------0-----0-------- 
Bb------------0-------------------------0-----0--------
Gb----3------------------------------------------------
Db----4-------------4---4/5----------------------------
Ab----4-------------4---4/5----2-----------------2---0- 
Eb----2---2--------------------0----0------------------
Don’t hate you anymore

Eb------------------------------------------------
Bb----------------------------------------3--3----
Gb-------------2----------------------------------
Db------------------------------2--2--2-----------
Ab----2---2---2------2--2---2--0------------------
Eb----------------------------------------------0-
There is nothing I could say that I 

Eb------------0--------0--------------0------0--0-
Bb------------0--------0--------------0------0--0-
Gb------------3-----------------------------------
Db----4-------4----4-----5----------------------5-
Ab----4-------------4-----5---2-----------------5-
Eb----2-----2------------------0----0-------------
Haven’t thought be fore

Chorus:
Eb-----------------------------------------------
Bb------------------------6-6-6---6---6----------
Gb------------------0-----6-6-6---6---6----------
Db---7--7-7-7-7-----0-----6-6-6---6---6------7-7-
Ab---7--7-7-7-7-----------4-4-4---4---4------7-7-
Eb---5--5-5-5-5-------------------4---4------5-5-
Serve the servants oh o                                                                                               

Eb-----------------------------------------------
Bb------------------------6-6-6---6---6----------
Gb------------------0-----6-6-6---6---6----------
Db---7--7-7-7-7-----0-----6-6-6---6---6------7-7-
Ab---7--7-7-7-7-----------4-4-4---4---4------7-7-
Eb---5--5-5-5-5-------------------4---4------5-5-              
Serve the servants oh no                                                                                               

Eb-----------------------------------------------
Bb------------------------6-6-6---6---6----------
Gb------------------0-----6-6-6---6---6----------
Db---7--7-7-7-7-----0-----6-6-6---6---6------7-7-
Ab---7--7-7-7-7-----------4-4-4---4---4------7-7-
Eb---5--5-5-5-5-------------------4---4------5-5-
Serve the ser vants oh no                                                                                               

Eb------0--------------------------
Bb------0--------6--6--6----6----6-
Gb---------------6--6--6----6----6-
Db---7----7------6--6--6----6----6-
Ab---7----7------4--4--4----4----4-
Eb---5----5------------4----4----4-
Serve the servants That                                                                                                    

Eb---------------------------------------------
Bb---------------------------------------------
Gb------------------------------------------5--
Db----4--4---4----4---4---4---4-------------5--
Ab----4--4---4----4---4---4---4--------------5-
Eb----2--2---2---2---2----2---2----3--3------3-
Legendary divorce

Eb|-----------
Bb|----11~~~~-
Gb|----11-~~~~
Db|----10-~~~~
Ab|----9-~~~~-
Eb|-----------

Eb|----------
Bb|----------
Gb|----------
Db|---2------ x6
Ab|---2------
Eb|---0------
Serve the servants oh no

Eb---------0----------------------------------
Bb---------X----------------------------------
Gb---------2-------2--2--2-----2--------------
Db----2------------2--2--2-----2------4--4--4-
Ab----2------------0--0--0-----0------4--4--4-
Eb----0-------------------------------2--2--2-
Serve the servants that leg -                                                                          

Eb----------------------------------------X------------- 
Bb------------------------------5-5--5----X---5------12- 
Gb------------------------------5-5--5----X---5------12- 
Db----4-------4---4-----4---4---5-5--5----X---4------11-
Ab----4-------4---4-----4---4---3-3--5----X-------------
Eb----2-------2---2-----2---2---3-3--3----X-------------
- endary divorce is such a bore                         

Комментарий автора:

Tune down half step.
 
 

Видео