Nirvana - Shifting, аккорды

Прокрутка
Тональность
Шрифт
100
Nirvana - Sifting
Tabbed by:Khafka
Email:nisse.c@chello.se

The Correct title is Sifting,Not Shifting!!!

E-0-0-0-0---

D-----------3--------|----------2/1---0--
A-----------3--------|----------2/1---0--
E--0-0-0-0-----------|--0-0-0-0----------

PRE-CHORUS

            You're eyes
	    Teacher said

D-----------5--------(5)----
A-----------5--------(5)----
E--0-0-0-0-------------------


CHORUS

                 Don't  have nothing for you
e---------------------------------------------
B--5-----5-5---5------------------------------
G--5-----5-5---5------------------------------
D--5-----5-5---5------------------------------
A--3-----3-3---3------------------------------
E----------------0--5b----5b--5---3---0---0---