Nirvana - Spank Thru (solo), аккорды

Прокрутка
Тональность
Шрифт
100
Solo:
e-------0-11/15b-15b-15b-15-15-14-15-----------------------------
B-------0-10/14b-14b-14b-14-14-14-15--------------------------0--
G-2b-2b-0----------------------------------------------12-14-14b-
D------------------------------------12-12-12-12-14-14-----------
A----------------------------------------------------------------
E----------------------------------------------------------------

e----------------------------------------16b-
B--0--0-0------------/14----14----16b16b-----
G-14b-0-0-9-7-----7-9/14----14----16b16b-----
D-------------9-7--------12----12-16b16b-----
A--------------------------------------------
E--------------------------------------------
 
 

Видео