Nirvana - Frances Farmer Will Have Her Revenge On Seattle, аккорды

Прокрутка
Тональность
Шрифт
100
G----------------------------------|
D----------------------------------|
A----------------------------------|
E--2---2----2--2----2--2------2--2-|

G---------------------------------------|
D---------------------------------------|
A---------------------------------------|
E--------------------------2----2----3/-|

G---------------------------------------|
D---------------------------------------|
A---------------------------------------|
Е-/4--4--4--4--4--4--4--4----0--0--0--0-|

G----------------------------------------|
D----------------------------------------|
A----------------------------------------|
Е-/3--3--3--3----0--0--0--0--/3--3--3--0-|

G---------------------------------------|
D---------------------------------------|
A---------------------------------------|
Е-/4--4--4--4--4--4--4--4----0--0--0--0-|

G----------------------------------------|
D----------------------------------------|
A----------------------------------------|
Е-/3--3--3--3----0--0--0--0--/3--3--3--0-|

G----------------------------------|
D----------------------------------|
A----------------------------------|
E--2---2----2--2----2--2------2--2-|

G---------------------------------------|
D---------------------------------------|
A---------------------------------------|
E--------------------------2----2----3/-|

G-------------------------------|
D-------------------------------|
A-------------------------------|
E--3--3--4--4---x-------4--4--4-|

G-----------------------------------------|
D-----------------------------------------|
A---------------------------------------0-|
E-----3---3--------3---------x---3--------|

G----------------------------------|
D----------------------------------|
A--2---2----2--2----2--2------2--2-|
E----------------------------------|

G---------------------------------------|
D---------------------------------------|
A--2-----2--2------2---2----------------|
E--------------------------2----2----3/-|

G----------------------------------------------|
D----------------------------------------------|
A--------------------------------------7----7--|
E--4---4----4--4---4-------/7----------------7-|

G-----------------------------------------|
D-----------------------------------------|
A------------0------------2---2---2-------|
E--5---5-------2---2--------------2-----2-|

G-----------------------|
D-----------------------|
A-----------------------|
E--2---2--2--2--2--2--3-|

G----------------------------------------|
D----------------------------------------|
A----------------------------------------|
E--4---4----4--4---4-------/7----------7-|

G-----------------------------------------|
D-----------------------------------------|
A-----------0-------------0---0---0-------|
E--5---5-------2---2--------------2-----2-|

G-----------------------|
D-----------------------|
A-----------------------|
E--2---2--2--2--2--2--3-|

G----------------------------------------|
D----------------------------------------|
A----------------------------------------|
E--4---4----4--4---4-------/7----------7-|

G------------------------|
D------------------------|
A-----2---2--2---2--2--2-|
E--5---5-------2---2-----|

G----------------------------------------|
D----------------------------------------|
A--0--------------0--1---2--2--2---2---1-|
E----------------------------------------|


G----------------------------------------------|
D----------------------------------------------|
A----0-0-0-0-0-0-------0-----------------------|
E-------------------0-0-0--3-0-0-0-0-0-0-3---3-|

G-------------------------|
D-------------------------|
A-------------------------|
E--2--2--2--2--2--2--2--3-|

G-----------------------|
D-----------------------|
A-------------------0h1-|
E--2--2--2--2-----------|

Interlude:
G----------------------------------|
D----------------------------------|
A----------------/7--7--7---7----0-|
E--4---4----0----------------------|

G-------------------------------------|
D-------------------------------------|
A-------------------/7--7--7---7----0-|
E--4---4----0-------------------------|

G-----------------------------------------------|
D-----------------------------------------------|
A--4---4---4--4--4--4---4---5--5--5----5--4-2p0-|
E-----------------------------------------------|

G-------------------------------------------------|
D--------------------------------3------------2p0-|
A--2---2--2--2--2--2-2-2-2----2-2-2-2--0----------|
E-------------------------------------------------|

G------------------------------------------------|
D------------------------------------------------|
A------------------------------------------------|
E--3---------------3------2--2--2--2--2--2--2--3-|

And you finish with this stuff:
G-----------------|
D-----------------|
A-----------------|
E--4------4-------|

Комментарий автора:

Lyrics:
It´s so relieving to know that you´re leaving as soon as you get paid
It´s so relaxing to hear you´re asking wherever you get your way
I´s so soothing to know that you´ll sue me, 
this is starting to sound the same
I miss the comfort in being sad

In her false withness, we hope you´re still with us, 
to see if they float or drown
Our favorite paitent, A display of patience, 
disease-covered Puget Sound
She´ll come back as fire, to burn all the liars, 
and leave a blanket of ash on the ground 
I miss the comfort in being sad
 
 

Видео