Nirvana - I Hate Myself And Want To Die, аккорды

Прокрутка
Тональность
Шрифт
100
Verse:
3:-5--5-------------5--5-------------
4:-5--5-0-0-2-2-1-2-5--5-0-0-2-2-1-0-
5:-3--3-0-0-2-2-1-2-3--3-0-0-2-2-1-0-
6:------0-0-2-2-1-2------0-0-2-2-1-0-

Chorus:
4:-3--3-3-7--7-7-3--3-3-7--7-7-
5:-3--3-3-7--7-7-3--3-3-7--7-7-
6:-3--3-3-7--7-7-3--3-3-7--7-7-

Ending:
4:-7---------- 
5:-7----------
6:-7--xx--xx--

Комментарий автора:

Lyrics:

I Hate Myself and Want to Die
Runny nose and runny yolk
Even if you have a cold still
You can cough on me again
I still haven´t had my fulfill
In the someday what´s that sound?
In the someday
what´s that song? (x2)
Broken heart and broken bones
Think of how a castrated horse feels
One more quirky clich?´d phrase
You´re the one I wanna refill
In the someday what´s that sound?
In the someday
what´s that song? (x3)
(Guitar Solo)
(During solo:)
most people don´t realize
that two large pieces of coral,
painted brown, and attached to his skull
with common wood screws can
make a child look like a deer
In the someday what´s that sound?
In the someday
what´s that song? (x3)
Runny nose and runny yolk
Even if you have a cold still
You can cough on me again
I still haven´t had my fulfill
In the someday what´s that sound?
In the someday
what´s that song? (x3)
 
 

Видео