Nirvana - Molly's Lips, аккорды

Прокрутка
Тональность
Шрифт
100
Intro:
	A		C
1)---5-----5-----8---8---8---8---|
2)---5-----5-----8---8---8---8---|
3)---6-----6-----9---9---9---9---|
4)---7-----7-----10--10--10--10--|
5)---7-----7-----10--10--10--10--|
6)---5-----5-----8---8---8---8---| x4 

Verse:
  A         C         A
She said she take me anywhere
	 C		 A
	she take me anywhere
 C		A      C
It´s not assistent to be
  A         C         A
She said she take me anywhere
	 C		 A
	she take me anywhere
 C		A      C
It´s not as us taint clear

Chorus:
 A     C    D      C
Kiss kiss Мolly´s lips
 A     C    D      C
Kiss kiss Мolly´s lips
 A     C    D      C
Kiss kiss Мolly´s lips
 A     C    D      C
Kiss kiss Мolly´s lips

Verse:
  A         C         A
She said she take me anywhere
	 C		 A
	she take me anywhere
 C		A      C
It´s not assistent to be
  A         C         A
She said she take me anywhere
	 C		 A
	she take me anywhere
 C		A      C
It´s not as us taint clear

Chorus:
 A     C    D      C
Kiss kiss Мolly´s lips
 A     C    D      C
Kiss kiss Мolly´s lips
 A     C    D      C
Kiss kiss Мolly´s lips
 A     C    D      C
Kiss kiss Мolly´s lips

Intro:
	A		C
1)---5-----5-----8---8---8---8---|
2)---5-----5-----8---8---8---8---|
3)---6-----6-----9---9---9---9---|
4)---7-----7-----10--10--10--10--|
5)---7-----7-----10--10--10--10--|
6)---5-----5-----8---8---8---8---| x4 

Verse:
  A         C         A
She said she take me anywhere
	 C		 A
	she take me anywhere
 C		A      C
It´s not assistent to be
  A         C         A
She said she take me anywhere
	 C		 A
	she take me anywhere
 C		A      C
It´s not as us taint clear

Сhorus:
  A	 C	D  C
Kiss kiss Мolly´s lips
  A	 C	D  C
Kiss kiss Мolly´s lips
  A	 C	D  C
Kiss kiss Мolly´s lips
 A    C    D	C    A
Kiss kiss Мo-o-olly´s lips
 
 

Видео