Nirvana - Old Age, аккорды

Прокрутка
Тональность
Шрифт
100
Main Riff:

Somebody finally freed my brother
1|-0-0-0-0-0--0-0-0-0-0-
2|-0-0-0-0-0--0-0-0-0-0-
3|-0-0-0-0-0--5-5-5-5-5-
4|-2-2-2-2-2--5-5-5-5-5-
5|-2-2-2-2-2--3-3-3-3-3-
6|-0-0-0-0-0--0-0-0-0-0-
   ^ ^ ^ v ^  ^ ^ ^ v ^

One more day to free my brother
1|-0-0-0-0-0--0-0-0-0-0-
2|-0-0-0-0-0--0-0-0-0-0-
3|-0-0-0-0-0--5-5-5-5-5-
4|-2-2-2-2-2--5-5-5-5-5-
5|-2-2-2-2-2--3-3-3-3-3-
6|-0-0-0-0-0--0-0-0-0-0-
   ^ ^ ^ v ^  ^ ^ ^ v ^

Help me I won't find a way, no
1|-0-0-0-0-0--0-0-0-0-0-----0--------0--------0--0-0--
2|-0-0-0-0-0--0-0-0-0-0-----0--------0--------0--0-0--
3|-0-0-0-0-0--5-5-5-5-5-5-5-0-5--5-5-0-5--5-5-0-50505-
4|-2-2-2-2-2--5-5-5-5-5-5-5---5--5-5---5--5-5---5-5-5-
5|-2-2-2-2-2--3-3-3-3-3-3-3---3--3-3---3--3-3---3-3-3-
6|-0-0-0-0-0--0-0-0-0-0-------------------------------
   ^ ^ ^ v ^  ^ ^ ^ v ^ ^ ^ ^ ^  ^ ^ ^ ^  ^ ^ ^ ^^^^^

Комментарий автора:

Lyrics:
Somebody finally freed my brother
One more day to free my brother
Help me I won't find a way, no

I'm going there to free my brother
No one there to free my brother (Don't go there to free my brother?)
Help me I won't find a way, brother

He's the friend to revive
With all the love I got
In every way I love you (In every way I'll help you?)
Help me know
 
 

Видео