Ночные Снайперы - Кошка московская, аккорды

Прокрутка
Тональность
Шрифт
100
Intro:
C                A7            Dm
e|------------------|-------------------------|--------------|
b|-1----0p1---------|-----------2----~3---2--5|-----6----8---|
g|----0-----0-----0-|---------0---0----0---0--|---7---7----7-|
d|---2-2---2-2---2-2|--2--0--2-2-2-2----2-2--5|--7-7-7-7--7--|
a|-3-----------3----|-3--2--0---------0-------|-5------------|

 A#
e|--------------6---|
b|-----7------6---6-|
g|---8---8---7-7-7-7|
d|--8-8-8-8---------|
a|-6----------------|

Bass:
d|--------|--------------------|--------3-2-0|------------------|
a|-3------|-3--2--0---5--7---10|-5-----------|-1----------5---2-|
e|--------|--------------------|-------------|-------3----------|

 C
Кошка хочет курить
  A7
У кошки намокли уши
 Dm
Кошка хочет скулить
   A#
Ей как и собаке хоть кто-то да нужен

   C
Над кошкой плывут облака
   A7
Московские звезды щекочут лапы
   Dm
Хотя бы немного молока
  A#
И можно быть сильной, а нужно быть слабой

  F
 Хо-ой-йо-йой
  A
 Хо-ой-йо-йой
  Dm
 Хо-ой-йо-йой
  A#
 Хо-ой-йо-йой

 C
Кошка меняет цвета
  A7
Черный уже не носит
 Dm
В ядерно-солнечном прячет себя
 A#
В темно-синем себя уносит

 C
Кошка не пишет стихи
  A7
А дамские штучки как фига в кармане
 Dm
Кошке плевать на духи
 A#
Она хорошеет с годами

  F
 Хо-ой-йо-йой
  A
 Хо-ой-йо-йой
  Dm
 Хо-ой-йо-йой
  A#
 Хо-ой-йо-йой с годами

  F
 Хо-ой-йо-йой
  A
 Хо-ой-йо-йой
  Dm
 Хо-ой-йо-йой
  A#
 Хо-ой-йо-йой с годами
 
 

Видео