Ночные Снайперы - Лети, моя душа, аккорды

Прокрутка
Тональность
Шрифт
100
Вступление:
E|----0-------0-------0-------0---
B|---1-1-----0-0-----1-1-----0-0--
G|--2---2---2---2---2---2---2---2-
D|--------------------------------
A|-0------------------------------
E|---------4-------3-------2------

E|----0-------0-------0-------0---
B|---1-1-----0-0-----1-1-----0-0--
G|--2---2---2---2---2---2---2---2-
D|--------------------------------
A|-0------------------------------
E|---------4-------3-------2------

    Am      Asus2
Лети, моя душа,
    Am           Asus2
Лети, мой тяжкий рох.
    Dm       E
Под облаками блокитными,
   Dm        E            Am
Под облаками-зенитками в небо.
    Dm       E
Под облаками блокитными,
   Dm        E           Am
Под облаками-зенитками в небо.

    Am      Asus2
Лети, моя душа,
    Am      Asus2
И солнце поцелуй
    Dm       E
За всех друзей моих сгинувших,
   Dm        E        Am
За тех, кого не покину я.
    Dm       E
За всех друзей моих сгинувших,
   Dm        E         Am
За тех, кого не покину я.

Припев:
 F    G   C
 Печаль моя,
 Dm/F E   Am
 Будто роса.
 F        G        C        Dm
 Легкая птаха светла и прозрачна
 Dm6      E      Am
 Белой рубахой отца.
 F        G        C        Dm
 Легкая птаха светла и прозрачна
 Dm6      E      Am
 Белой рубахой отца.

    Am      Asus2
Лети, моя любовь,
    Am      Asus2
И крови не жалей.
    Dm       E
Брызгами, струями
   Dm        E Am
Да в полнолуния.
    Dm       E
Брызгами, струями

Dm E Am

    Am      Asus2
И годы - по часам,
    Am      Asus2
И сердце - ястребок.
    Dm       E
Я дышу радостью,
   Dm        E         Am
Нет большей сладости - жить.

 F    G   C
 Печаль моя,
 Dm/F E   Am
 Будто роса.
 F        G        C        Dm
 Легкая птаха светла и прозрачна
 Dm6      E      Am
 Белой рубахой отца.
 F        G        C        Dm
 Легкая птаха светла и прозрачна
 Dm6      E      Am
 Белой рубахой отца.

E|----0-------0-------0-------0---
B|---1-1-----0-0-----1-1-----0-0--
G|--2---2---2---2---2---2---2---2-
D|--------------------------------
A|-0------------------------------
E|---------4-------3-------2------

E|----0-------0-------0-------0---
B|---1-1-----0-0-----1-1-----0-0--
G|--2---2---2---2---2---2---2---2-
D|--------------------------------
A|-0------------------------------
E|---------4-------3-------2------

    Am     Asus2
Лети, моя душа,
    Am          Asus2
Лети, мой тяжкий рох.
    Dm       E
Под облаками блокитными,
   Dm        E             Am
Под облаками-зенитками в небо.
  Dm6   E Dm6 E Asus2
В небо... в небо...
 
 

Видео