Ночные Снайперы - Время года зима, аккорды

Прокрутка
Тональность
Шрифт
100
Вступление:
1)-------------|-----------|-----------|-----------|
2)---4---4---4-|-5---5---5-|-4---4---4-|-5---5---5-|
3)-----5---5---|---6---6---|---5---5---|---6---6---|
4)-------------|-----------|-----------|-----------| 
5)-------------|-----------|-----------|-----------|  
6)-------------|-----------|-----------|-----------|   
                                                        x2 
1)---5---5---5-|-4---4---4-|-5---5---5-|-----------|   /
2)-----7---7---|---7---7---|---7---7---|-----------|  /
3)-------------|-----------|-----------|----6------| /
4)-------------|-----------|-----------|-----------|
5)-------------|-----------|-----------|-----------|
6)-------------|-----------|-----------|-----------|

 C#m
Время года зима. Время года терять.
 G#
Ты уже потерял, но еще не остыл ко мне.
            C#m
Время года зима. Мы рискуем не стать. 
    G#
Мы рискуем растаять без сопротивления                       
 F#m           C#m
Возвращаюсь домой. Начинаю курить.                                                       
 F#m            C#m
Сигаретным стволом поджигаю любовь
 F#m            C#m
Начинаю цедить лучшие коньяки
      A
И по лю, по любви - виноградным огнем.

            Dm
Время года зима. Время года не сметь.
                            A
Я не смею поверить, что старость и мой удел.
            Dm
Время года зима. Ты меня проглядел. 
                            A
Ты меня как ... Как кино просмотрел во сне
 Gm            Dm
Возвращаюсь домой. Начинаю курить.
 Gm            Dm
Сигаретным стволом поджигаю любовь
 Gm            Dm
Начинаю цедить лучшие коньяки
      B
И по лю, по любви - виноградным огнем.

           D#m
Удивляюсь судьбе. Капитан за двоих
                               B
Нас запомнили все. Нас запомнили все, ты верь.
           D#m
Я тебя сохраню, как последний патрон.
                               B
Каскадерам любви не положен дублер, ты знай
           G#m              D#m
Я запомню тебя. Ты себя сохрани.
           G#m              D#m
Равнодушие тем, кто плюет нам в сердца.
           G#m              D#m
Возвращаюсь домой, возвращаюсь домой.
     B
Я запомню тебя от ступней до лица.
             Em
Время года зима
             Em
Время года зима
             Em
Время года зима
 
 

Видео