Ногу Свело - Муж на работе, аккорды

Прокрутка
Тональность
Шрифт
100
Вступление:
Е)-------------------
B)-11-1/3----------5-
G)--------0-22-2/4---
D)-22-2/4-0--------5-
A)----------33-3/5---
E)-------------------

Е)---------------------
B)-11-1/3----5-------5-
G)--------00---22-24---
D)-22-2/4-00-5-------5-
A)-------------33-35---
E)---------------------

Бас:
A)------5----------7-33-3-5-----7--------7-
E)-88-8---3-55-5-7----------3-3---55-5-7---

Гитара 1:
Е)-3^53-35/75-------0^20-22/3--3--
B)-----0------3-5-1-----4-----0-0-
G)-------------0-------------0----
D)----------------2---------------
A)-3------------------------------
E)------------3-------------------

Е)-3^53-35/75---0---0^20---
B)-----0------3-3-1-----45-
G)-------------0-----------
D)----------------2------5-
A)-3-----------------------
E)------------3------------

Гитара 2:
Е)-------------------------
B)-------------------------
G)-----------0-----------0-
D)--20^20---0---20^20---2--
A)-3-------2---0-------2---
E)--------3-----------0----

Е)-----------0---------------
B)-----------0--------0----0-
G)--------------------0-0-0--
D)--20^20---0---20^20-2--2---
A)-3-------2---0-------------
E)--------3-----------0------

Комментарий автора:

Порядок: 
Вступление
Гитара1+Бас
Гитара2
Гитара1+2
 
 

Видео