Ногу Свело - Муж на работе, аккорды

Прокрутка
Тональность
Шрифт
100
Track 1: Steel Guitar
E|---------------------|-----|---------------------|-1---|---------------------|
B|-3---3-------3---5---|-----|---------------------|-----|-3---3-------3---3-5-|
G|---------------------|-2---|-3---3-------3---6---|-----|---------------------|
D|---------------------|-----|---------------------|-0---|---------------------|
A|-1---1-------1---3---|-----|---------------------|-----|-1---1-------1---1-3-|
E|---------------------|-1---|-3---3-------3---5---|-----|---------------------|

E|------------|---------------------|-----|-1--3--1-------1---5---3-|-------------|
B|---------6--|---------------------|-3---|-----------1-------------|-1-----------|
G|-2---2------|-3---3-------3---6---|-----|-------------------------|------2------|
D|------------|---------------------|-----|-------------------------|-----------3-|
A|---------5--|---------------------|-5---|-1-----------------3-----|-------------|
E|-1---1------|-3---3-------3---5---|-----|-------------------------|-1-----------|


E|----------------------|-------------------|-1--3--1-------1---5---3-|-----------5-|
B|------3--6--3-------5-|-6-----------6-----|-----------1-------------|-1-----------|
G|-3--------------6-----|-----7-----------7-|-------------------------|------2------|
D|----------------------|---------7---------|-------------------------|-------------|
A|----------------------|-5-----------------|-1-----------------3-----|-----------5-|
E|-3--------------5-----|-------------------|-------------------------|-1-----------|

E|----------------------|-----|-----------------------|----------------|
B|------3--6--3-------5-|-----|-----------------------|----------------|
G|-3--------------6-----|-7---|-----------------------|----------------|
D|----------------------|-----|-----3---2---3-------2-|--------------3-|
A|----------------------|-5---|-1---------------3-----|------3---------|
E|-3--------------5-----|-----|-----------------------|-1--------1-----|

E|-----------------------|----------------|-----------------------|------------------|
B|-----------------------|----------------|-----------------------|------------------|
G|-----------------------|--------------7-|-----------------------|--------------2---|
D|-----------------------|------7---------|-----3---2---3-------2-|------------------|
A|-----5---4---5-------4-|-5--------5-----|-1---------------3-----|------3-------5---|
E|-3---------------5-----|----------------|-----------------------|-1--------1-------|

E|---------------------|-------|-1--3--1-------1---5---3-|-------------|
B|---------------------|-------|-----------1-------------|-1-----------|
G|---------------------|-------|-------------------------|------2------|
D|---------------------|-7-----|-------------------------|-----------3-|
A|-----5---4---5---4---|-5-----|-1-----------------3-----|-------------|
E|-3---------------5---|-------|-------------------------|-1-----------|

E|----------------------|-------------------|-1--3--1-------1---5---3-|-----------5-|
B|------3--6--3-------5-|-6-----------6-----|-----------1-------------|-1-----------|
G|-3--------------6-----|-----7-----------7-|-------------------------|------2------|
D|----------------------|---------7---------|-------------------------|-------------|
A|----------------------|-5-----------------|-1-----------------3-----|-----------5-|
E|-3--------------5-----|-------------------|-------------------------|-1-----------|

E|----------------------|-------------------|
B|------3--6--3-------5-|-------------7---7-|
G|-3--------------6-----|---------7---------|
D|----------------------|-----7-------------|
A|----------------------|-5-----------------|
E|-3--------------5-----|-------------------|

Track 2: Acoustic Bass
G|-|-|-|-|-|-|-|-|----------|-----|----------|-----|----------|---------|
D|-|-|-|-|-|-|-|-|----------|-----|----------|-0---|----------|---------|
A|-|-|-|-|-|-|-|-|-1-----3--|-----|----------|-----|-1-----3--|-------5-|
E|-|-|-|-|-|-|-|-|----------|-1---|-3-----5--|-----|----------|-1-------|


G|----------|-----|-|-|-|-|-|-|-|-|----------|-----|----------|-----|
D|----------|-0---|-|-|-|-|-|-|-|-|----------|-----|----------|-0---|
A|----------|-----|-|-|-|-|-|-|-|-|-1-----3--|-----|----------|-----|
E|-3-----5--|-----|-|-|-|-|-|-|-|-|----------|-1---|-3-----5--|-----|


G|----------|----------|----------|------|
D|----------|----------|----------|-0----|
A|-1-----3--|-------5--|----------|------|
E|----------|-1--------|-3-----5--|------|

Комментарий автора:

Album: Счастлива, потому что беременна: Зелёный альбом
Author: Макс Покровский
 
 
Свернуть Распечатать

Видео