Noize MC - Тёмная ночь, аккорды

Прокрутка
Тональность
Шрифт
100
Capo 1

Вся песня: 
e|-----------------------------------------------------------------------------------
B|----1--0---------------------------------------------------------------------------
G|-2---------2------2-----------0--2--0--------------------0-------------------------
D|-2------------2-----------3------------3---2----2--0--2----0-----0---2---3---2---0-
A|-0----------------------3--------------------3-------------------2-----------------
E|---------------------1----------------------------------------3--------------------

e|-------------------------------------0---------------------------------------------
B|----------------------------------------0-------------0----------------------------
G|-2-----------------------------------------0-----2-------2---------2---------2-----
D|-2--2--0-------------------------------------------2---------2---------2---------2-
A|-0---------3-----3-------5-----5--------------0------------------------------------
E|--------------1-----1/3-----3-----3-----------------------------1---------3--------

A5 A5
Темная ночь только пули свистят по степи
F5 G5
Только ветер гудит в проводах тускло звезды мерцают
A5 A5
В темную ночь ты любимая знаю не спишь
F5 G5
И у детской кроватки тайком ты слезу утираешь
A5 A5
Как я люблю глубину твоих ласковых глаз
F5 G5
Как я хочу к ним прижаться губами
A5 A5
Темная ночь разделяет любимая нас
F5 G5
И тревожная черная степь пролегла между нами
 
 

Видео