Noize MC - Мое Море, аккорды

Прокрутка
Тональность
Шрифт
100
Вступление, куплет:
     Am7    F                  ?      E7
 E––0–––––––––––––1––––––––0–––––––––––––0––––––––––
 B––––1–––––––––––1––––––––––3–––––––––––3––––––––––
 G––0–––0–2–––––––2––––2–––2–––2–1–––––––1––––––1–––
 D––––––––––––––––3––––––––––––––––––––––0––––––––––
 A––0––––––––––3–––––3–––––2–––––––––––2––––––2–––––
 E––––––––––––1––––––––––––––––––––––0––––––––––––––

      Am7   F                  ?       E7
 E––0–––––––––––––1–––––––––––0––––––0––––0–––––––––
 B––––1–––––––––––1–––––––––––3––––––3––––3–––––––––
 G––0–––0–2–––––––2––––2––––––2––––––1––––1––––––1––
 D––––––––––––––––3–––––––––––––––––––––––0–––––––––
 A––0––––––––––3–––––3–––––2–––––––2–––––––––––2––––
 E––––––––––––1–––––––––––––––––––0–––––––––––––––––

 Куплет:
 Вторая часть куплета такая же как вступление.

 Кода:
 Табы, как играю на видео (у Нойза немного по-другому).
     Am7              F                    ?           E7
 E------------------------------------------------------------------------0-------
 B---------13-------------------10-------------------------------------0---0------
 G ------------12-------------------10-----------------7------4--------------------
 D----14--------14--------10--------10-------------7------6-----------------------
 A--0--------------------8-------------------------8------------------------------
 E-----------------------------------------------7--------------0-------0-------0-

     Am7              F                   ?             E7         флажолеты
 E-----------------------------------------------------------------------------12-
 B---------13-------------------10---------------------------------------------12-
 G------------12-------------------10-----------------7-------4-------------------
 D----14--------14--------10--------10-------------7-------6----------------------
 A--0--------------------8-------------------------8------------------------------
 E-----------------------------------------------7---------------0--------0-------
 
 

Видео