Noize MC - Чайлдфри, аккорды

Прокрутка
Тональность
Шрифт
100
Вступление:
   Em              C       G
e--------------------------------------------
B----------0-----------------3-0-------------
G--------2---2-0---0-----0-------0-----------
D------2---------4---4-2---0-----------------
A----2---------------------------------------
E--0-----------------------------------------

   Em              C       G
e--------------------------------------------
B----------0---------------------------------
G--------2---2-0---0-----0---0---0-----------
D------2---------4---4-2---0---1-------------
A----2---------------------------------------
E--0-----------------------------------------

   Em              C       G
e--------------------------------------------
B----------0-----------------3-0-------------
G--------2---2-0---0-----0-------0-----------
D------2---------4---4-2---0-----------------
A----2---------------------------------------
E--0-----------------------------------------

   Em      C       G       B
e--------------------------------------------
B--------------------------------------------
G--------4-5-------------2-4-----------------
D------2-------4-5-----0-------4-2-----------
A----2-------3-------2-------2---------------
E--0---------------3-------------------------

Куплет 1:
Em                C         G      
Жил на свете человек впечатлительный. 
Em                 C          G      
Любым советам следовал неукоснительно. 
Em            C         G         Em
Он от этого и умер вообще-то, видимо. 
     C         G          B   
По совету из ютубовского видео. 

Em                C         G      
Написал тот человек в завещании. 
Em                C         G      
Чтоб на повторе от начала до окончания. 
Em                C         G      
Этот трек играл на похоронной церемонии.                             
Em            C         G         Em
И чтоб гости плясали все и не филонили! 
     C         G          B   
Со всей дури, чтоб силы не экономили! 

Припев: x2 
Em              C            G
Послушай мой совет в формате мр3. 
Em               C          G 
Не жди, пока состаришься, скорей умри! 
Em               C          G      Em
Жаль, что твои родители не childfree. 
   C    G      B     
Гори в аду, в аду гори! 

Куплет 2:           
Em                C         G      
Сатана напевает эту песню в душе. 
Em                C         G      
Пока жена ему готовит на кухне кушать. 
Em            C         G         Em
Она знает, чем порадовать на ужин мужа. 
     C         G          B   
И достает из морозилки твою злую душу. 
 
Em                C         G      
Пока в раковине тает кровавый лед. 
Em                C         G      
Он шампунь c экстрактом жожоба берет. 
Em            C         G         Em
И намылившись весь, от рогов до копыт, 
     C         G          B   
C закрытыми глазами то поет, то свистит. 

Em                C         G      
То зарычит, то как райская птичка. 
Em                C    G      
Мотивчик адски прилипчив. 
Em            C       G  Em
Настроение просто отличное. 
     C         G      B   
Мелодично журчит водичка. 

Em                C         G 
А на кухне стучит молоток шипастый, 
Em                C         G 
На кухне шипит в сковородке масло. 
Em            C         G         Em
Там - дым коромыслом и пахнет вкусно. 
     C         G          B   
Когда повар от бога, еда - искусство. 

Припев: x2 
Em              C            G
Послушай мой совет в формате мр3. 
Em               C          G 
Не жди, пока состаришься, скорей умри! 
Em               C          G      Em
Жаль, что твои родители не childfree. 
   C    G      B     
Гори в аду, в аду гори! 

Куплет 3: 
Em                C         G      
Люцифер уже смыл кондиционер. 
Em                C         G      
В зеркало посмотрел, видит - располнел! 
Em            C         G     Em
Полотенце снял c крючка на стене. 
     C         G          B   
Вытер голову и тело, халат надел. 

Em                C         G      
Сел за стол, налил для аппетита 100. 
Em                C         G      
Из большой бутылки с перевернутым крестом.
Em            C         G   Em
От аромата урчит желудок пустой. 
     C         G          B   
А ты такой кричишь ему с блюда: "Стой!" 

Em                C         G      
Нож не трожь, рот закрой, вилку не втыкай. 
Em                C         G      
Не такой уж я плохой, мне надо в рай! 
Em            C         G        Em
Сатане не впервой слышать эту срань. 
     C         G          B   
Из рюмки крепкий настой льется через край. 

Em                C         G      
Прямо в рот, вот и все, выпит аперитив! 
Em                C         G      
Он мурлычет под нос все тот же мотив. 
Em            C         G         Em
Сейчас они подкрепятся c женой нормально. 
     C         G          B   
И отправятся антихриста делать в спальню. 

Припев: x2 
Em              C            G
Послушай мой совет в формате мр3. 
Em               C          G 
Не жди, пока состаришься, скорей умри! 
Em               C          G      Em
Жаль, что твои родители не childfree. 
   C    G      B     
Гори в аду, в аду гори! 
 
 
Свернуть Распечатать

Видео