Новиков Александр - Чулочек, аккорды

Прокрутка
Тональность
Шрифт
100
Intro:
Dm E7 F Dm Am B7 E7 Am 
e|---/8-8-7-8-7-8---7-7-8-7-5-5---------7h5-------------------------------
B|------------------------------------------6-----------5-----------------
G|---/9-9-7-9-7-9---7-7-9-7-5-5---7-6-7-------7-5-4-5-7-----4h5h4-2-1-4-2-
D|------------------------------------------------------------------------
A|------------------------------------------------------------------------
E|------------------------------------------------------------------------

E7 
e|---------------
B|---------------
G|---2-0h2h0-----
D|-----------3-2-
A|---------------
E|---------------

Am Dm 
Вышел я из метро и пошел по центральной дороге, 
E7 Am B7 E7 
И случайно в толпе уронил свой большой кошелек. 
Am Dm 
А как поднял глаза, увидал эти самые ноги 
G C E7 
И я понял, что нету на свете красивее ног. 

Dm 
Чулочек расписной - 
E7 F 
Такой не спрясть ни в жисть, 
A7 
А я насквозь блатной, 
Dm 
Вчера откинувшись. 
Am 
А я насквозь блатной, 
B7 E7 Am 
Вчера откинувшись. 

E7 
e|--------------------- 
B|--------------------- 
G|---2-0h2h0----------- 
D|-----------3-2------- 
A|--------------------- 
E|--------------------- 

Am Dm
Я сказал ей слова, и она улыбнулась мне мило, 
E7 Am B7 E7 
Как должна улыбаться однажды злодейка-судьба. 
Am Dm
И внутри у меня что-то больно и сладко заныло, 
G C E7
И в мозгах приключилась какая-то, прямо, стрельба. 

Dm
Чулочек был на ней -  
E7 F
Глаз прямо не отвесть, 
A7
А я блатных блатней, 
Dm
На пантомимах весь. 
Am
А я блатных блатней, 
B7 E7 Am 
На пантомимах весь. 

Am Dm
И пошел я за ней и глядел, и глядел ей тайком в полу, 
E7 Am B7 E7 
И она повела меня так, как проводят слепых. 
Am Dm
И когда чем-то твердым в парадном мне дали по кумполу, 
G C E7
Эти милые ножки изящно мне пнули под дых. 

Dm
Чулочек был цветной  
E7 F
А фраеров - лишка, 
A7
А я, насквозь блатной, 
Dm
Взял всех на перышко. 
Am
А я, насквозь блатной, 
Am 
Взял всех на перышко. 

E7 F# Bm 
e|-----------------------2—2h3-2-
B|----------------------2--------
G|---2-0h2h0-----------3---------
D|-----------3-2---4--4----------
A|-------------------------------
E|-------------------------------

Bm Em6 
И сирены вокруг, и огни замигали, как в цирке. 
F# F#7 Bm C#7 F# 
А потом, как обычно, что даже рассказывать лень. 
Bm Em 
Но когда я шагал коридором знакомой Бутырки, 
A7 D F# 
Вспоминал почему-то лишь этот сиреневый день. 

Em6 
Чулочек тот смешной, 
F# G 
Что по ноге - плющом. 
B7 
А я такой блатной -  
Em6 
На десять лет еще. 
Bm 
А я такой блатной -  
C#7 F# Bm 
На десять лет еще. 

F# 
e|-----------
B|-----------
G|-----------
D|-----------
A|---9-7-5-4-
E|---7-5-3-2-

Bm Em6 F# F#7 Bm C#7 F# Bm Em A7 D F# 

Em6
Чулочек тот смешной, 
F# G
Что по ноге - плющом. 
B7
А я такой блатной -  
Em6
На десять лет еще. 
Bm
А я такой блатной -  
C#7 F# Bm 
На десять лет еще. 
Em6 Bm 
А я такой блатной -  
C#7 F# Bm 
На десять лет еще. 
Em6 Bm 
А я такой блатной -  
C#7 F# Bm 
На десять лет еще
 
 
Свернуть Распечатать

Видео