Новиков Александр - Люблю сейчас, аккорды

Прокрутка
Тональность
Шрифт
100
Вступление:
E|---0-------0-------0-------2-------------0---------------0-------|
B|-----0-------2-------0-------1-------4-------4-------4-------4---|
G|-------1-------2-------1-------1---4---4---4---4---4---4---4---4-|
D|-2---------------2-------1---------------------------------------|
A|---------0-----------------------4---------------4---------------|
E|-----------------------------------------------------------------|

E|---------0---------------0---------------0---------------0-------|
B|-----4-------4-------4-------4-------4-------4-------4-------4---|
G|---4---4---4---4---4---4---4---4---4---4---4---4---2---2---2---2-|
D|-----------------------------------------------------------------|
A|-4---------------4---------------4---------------4---------------|
E|-----------------------------------------------------------------|

Ты помнишь,    сорила осень                 золотом    по   углам?                        
E|---------0---------------0---------------0---------------0-------|
B|-----4-------4-------4-------4-------2-------2-------1-------1---|
G|---2---2---2---2---4---4---4---4---3---3---3---3---1---1---1---1-|
D|---------------------------------2---------------1---------------|
A|-4---------------2-----------------------------------------------|
E|-----------------------------------------------------------------|

И было нам двадцать восемь               ровно        напополам                       
E|---------0---------------4---------------0---------------0-------|
B|-----4-------4-------4-------4-------4-------4-------4-------4---|
G|---4---4---4---4---4---4---4---4---2---2---2---2---4---4---4---4-|
D|-----------------------------------------------------------------|
A|-4---------------4---------------4---------------2---------------|
E|-----------------------------------------------------------------|

Ты ласково         говорила:            "Всему    настает     пора" -                       
E|---------0---------------0-----------------------4---------------|
B|-----4-------4---------7---7-------5-------4-----5---------------|
G|---4---4---4---4-----6-------6-------6-------5---6---------------|
D|-------------------7-----------7-------6-------6-6---------------|
A|-----------------6---------------4---------------4---------------|
E|-0---------------------------------------4-----------------------|
  И эхо тех слов    парило                   по   уголкам   двора...                       

Припев:
        F#m         B7    C#m
Я это золото мешал к вину
                    B  E A E/B C#7
И выпивал его за раз
               F#m          B7  E A E/B C#7
А ещё я так любил тебя одну,
D#m7-5                         C#m D#m7-5     G# C#m           
А, впрочем, всё ещё               люблю сейчас

     C#m                       
Ты мне говорила грустно,
    C#m                 F#m
Но били слова, как кнут,
      F#m            B7       
Что все золотые чувства
   Bbdim             G# 
Когда-нибудь опадут

  C#m                        
Я думал совсем иначе,
  F#m                B7  
И мир, золотой богач,
Emaj7                 F#m  
И осень, что нет богаче,
    C#m        G#        C#m 
Дождями пускались в плачь

Припев:
Я в этом золоте топил луну
На дне твоих печальных глаз,
А ещё я так любил тебя одну,
А, впрочем, всё ещё люблю сейчас...


Но что-то сменилось в выси,
На север прорвался юг,
И все золотые кисти
Ненужными стали вдруг

И сор золотой, облезлый
Слетел под весёлый свист.
А девочка та исчезла,
Как с ветки кленовый лист...

Переход на 1 полутон (на 1 лад) выше (Dm)

Проигрыш:
F#m | Gm  C7  Dm  Dm  C  F Bb F F#dim Gm  
Gm  C7  F Bb F F#dim Gm  Dm  Em7-5 A Dm

Припев:
            Gm          C7   Dm
Я в этом золоте купал струну
                      C F Bb F F#dim
И выставлялся напоказ
             Gm                C7 F Bb F F#dim
Девочка, я так любил тебя одну,
Gm                   Dm       Em7-5        A Dm          
А, впрочем, всё ещё          люблю сейчас...
                  Gm      A          Dm    
А, впрочем, всё ещё  люблю сейчас...
Gm  A           Dm9      
Люблю сейчас...
 
 
Свернуть Распечатать

Видео