Новиков Александр - Журавли над лагерем, аккорды новинка

Прокрутка
Тональность
Шрифт
100
   Bm                           Em6
e|-----------------------|------0-3--2--|
B|-3-2-3-2-3-2-3-2-3-2-3-|-0-2-3------2-|
G|-----------------------|--------------|
D|-----------------------|--------------|
A|-----------------------|--------------|
E|-----------------------|--------------|

   F#                              Bm
e|-----------------------|--------------|
B|-5-4-5-4-5-4-5-4-5-4-5-|---0-2-5-3----|
G|-----------------------|--3-----------|
D|-----------------------|--------------|
A|-----------------------|--------------|
E|-----------------------|--------------|

   Bm                           Em6
e|-----------------------|------0-3--2--|
B|-3-2-3-2-3-2-3-2-3-2-3-|-0-2-3------2-|
G|-----------------------|--------------|
D|-----------------------|--------------|
A|-----------------------|--------------|
E|-----------------------|--------------|

   F#                           Bm
e|-----------------------|--------------|
B|-5-4-5-4-5-4-5-4-5-4-5-|--------------|
G|-----------------------|--3-6-4-------|
D|-----------------------|--------------|
A|-----------------------|--------------|
E|-----------------------|--------------|

 Bm
Журавли в который раз
                      F# F#7
Над землей состроят клин
 Bm               D
Лето выжженное в дым 
A             F# F#7
Оставляя позади
Bm                E7
В небо голову задрав
                Bm
Я машу вам не один
                      Em6
Мы так свято верим в вас
F#        F#7           Bm
И вслед всем лагерем глядим.

 Bm
Журавли в который раз
                        F# F#7
В сером небе станут в строй 
Bm              D
И поманят за собой
 A                 F# F#7
Да не вырваться никак
Bm               Em6
И покатится из глаз
                    Bm
Дождь холодный и сырой
                   Em6
И отчалит вдаль косяк
F#   F#7         Bm
Окликая грешных нас

       Em6
      Журавли над лагерем
         Aadd9          Bm
      В сердце острый клин
       Em6
      Журавли над лагерем
      D          A B
      Ангелы земли
       Em6
      Журавли над лагерем
       F#        G   B
      Радостная весть
        Em       
      Птицы-бедолаги вы
       F#7          Bm
      Не садитесь здесь

    Cm
   Жизнь моя средь бела дня
                   G
   Подпирала небосвод
   Cm             Eb
   И отмеренные дни
    Bb                 G
   Собирала в долгий клин
    Cm                 Fm6
   Но с вами грешного меня
                     Cm
   Разделяет только год
                    Fm6
   А с любимой верной ли
    G             Cm
   Разделяет не один

       Fm6
      Журавли над лагерем
         A#add9          Cm
      В сердце острый клин
       Fm6
      Журавли над лагерем
      D#          A# C
      Ангелы земли
       Fm6
      Журавли над лагерем
       G        G#   C
      Радостная весть
        Fm       
      Птицы-бедолаги вы
       G7          Cm
      Не садитесь здесь
 
 
Свернуть Распечатать

Видео