Океан Ельзи - Компас, аккорды

Прокрутка
Тональность
Шрифт
100
Am (x02210)        Dadd9/A (x04230)   Dmadd9/A (x03230)
-----0------0----- -----0------0----- -----0------0-----
--1---1--1---1--1- --3---3--3---3--3- --3---3--3---3--3-
-2-2----2-2----2-2 -2-2----2-2----2-2 -2-2----2-2----2-2
----2------2------ ----4------4------ ----3------3------
0----------------- 0----------------- 0-----------------

Am (x02210)        Dadd9 (x54230)     E9/C (x33130)
-----0------0----- -----0------0----- -----0------0-----
--1---1--1---1--1- --3---3--3---3--3- --3---3--3---3--3-
-2-2----2-2----2-2 -2-2----2-2----2-2 -1-1----1-1----1-1
----2------2------ ----4------4------ ----3------3------
0----------------- 5----------------- 3-----------------

Am         - Dadd9/A  -
Знайди мене опівночі,
Dmadd9/A
Опівночі мене знайди
Am                        Dadd9  E9/C
І під подушку компас поклади.

Am          -    Dadd9/A  -
Застань мене без пам'яті,
Dmadd9/A
Без пам'яті мене застань,
Am                        Dadd9
Нехай там будуть тільки інь і янь.

Приспів:
  Fm           E
Асфальтами розбитими
   D#                 D  D# F
Кудись несе лінива течія,
     Gm
Не змити би
     F                  Em E
Під шум чужої долі своє я!

Назви мене без імені,
Скажи, для чого імена?
За ними тільки слава і вина.
Звільни мене обіймами,
Обіймами мене застав
Знайти все те,
Що я колись віддав!

Приспів.

Програш: DmGGm Dm G Gm A7
         Dm - G - Gm Dm G

Соло:
E ---------  ---------  ----3----  ----3----
B -6--8--6-  -6--8--6-  -6-----6-  -6-----6-
G 7-7--7--7  7-7--7--7  4-4--4--4  4-4--4--4

E ----3----  ---------  ----3----  --------
B -6-----6-  -6--8--6-  -6-----6-  -686--8-
G 3-3--3--3  7-7--7--7  4-4--4--4  7---66-6

Приспів.
 
 

Видео