Океан Ельзи - Позич менi сонце, аккорды

Прокрутка
Тональность
Шрифт
100
Вступление:
---0---------------3----------0-----3-----0-------------
---1---0---1-----3----------1-----------------3---0h1---
---2---------------0----------0-------------------------
---2---------------0----------2-------------------------
---0---------------2----------3-------------------------
--------------------3-----------------------------------
  Am            G          C                            

---------0-------------------3---------------------------------------
-----1-----0-----1-----3-------1----1----1---------------------------
------2---2-----2-----2-----0-------0----2----2----------------------
-----------2-----2-----2-----0-------2----3----3---------------------
-----------0-------------------2-------3-----------------------------
----------------------------------3-------------1----1------0h1h3--0-
       Am                 G       C    F    F   

Вступление: Am G C F }x2

Am       G        C
А ти позич мені сніг, 
        F       Am    G C F
Я намалюю на ньому нас всіх.
Am       G        C
І ти позич мені дощ, 
        F    Am G C F
Не питайся нікого. 
Am       G      C
Ти зупини мені час, 
        F       Am    G C F
Одночасно побачиш всіх нас, 
Am       G      C
І заплиши мені ти... 
        F       Am G C F
Краплинку сонечка свого. 

   Am     G         C
   А ти, ти, а ти, ти 
      F         Am 
   Позич мені сонце 
      G      C
   В моє віконце 
   F  F
   Є, є 

Am       G      C
Давай поїдем туди, 
        F    Am G C F
Де не питають нас, 
Am       G  C
Хто ми й куди. 
        F    Am G C F
Давай поїдем туди, 
Am       G      C
Й не бійся нікого. 
        F       Am    G C F
А як не зможеш, то знай, 
Am       G        C
Коли без тебе поїду в той край, 
        F       Am G C F
В долонях я понесу... Краплинку сонечка твого 

   Am     G         C
   А ти, ти, а ти, ти 
      F         Am 
   Позич мені сонце 
      G      C
   В моє віконце 
   F  F
   Є, є 
 
 

Видео