Океан Ельзи - Голос твій, аккорды

Прокрутка
Тональность
Шрифт
100
Intro: x2
         Am                   Dm         
E||-----------------|--7---------5---------||
B|| -----6----------|-------6---------5----||
G||-------2---------|-------7---------7----||
D||--2--------------|--7-------------------||

Am    F
Чи коли хто-нибудь бачив 
Dm    E
З неба як впаде зоря? 
Am    F
Я подумав: небо плаче, 
Dm    E
А вона його сльоза, 
Am    F
Ти пiдеш на захiд сонця, 
Dm    E
Ти побачиш ночi тiнь. 
Am    F
i пiд небом - тим, що плаче -
Dm    E
i пiд небом - тим, що плаче - 

Припев:
Dm   E          Am F
Я почую голос твiй
Dm   E          Am F
Я почую голос твiй     
Dm E  Am  C     F
Я почую голос твiй
Dm E
Я

Guitar solo: x2

E||----------10-----8---7-------------------12-----11----10-----| 
B||------10----------------------------10--------------------10-| 
G||--9-----------------------9-----10---------------------------| 
E||----------10-----8---7------------------7-----4--------------|
B||------10---------------------------5----------------3(5)-----| 
G||--9-----------------------9---7-----------------4------------| 

OR

E||----------8------8---7-------------------12-----12---10------|
B||-----10------------------10--------10---------------------12-|
G||--9----------------------------10----------------------------|

E||----------8------8---7---10-------------7-----6--------------|
B||-----10----------------------------9-----------------8-------|
G||--9---------------------------8-----------------8------------|

Am    F
Залишаються на небi 
Dm    E
Цi сльозинки, i завжди 
Am    F
Будуть люди їх шукати, 
Dm    E
Як шукали я i ти. 
Am    F
i багато з них знайдеться - 
Dm    E
Серед них буде й моя. 
Am    F
Тiльки небо далi плаче, 
Dm    E
Впаде ще одна сльоза - 

Припев:
Dm   E          Am F
Я почую голос твiй
Dm   E          Am F
Я почую голос твiй     
Dm E  Am  C     F
Я почую голос твiй
Dm E
Я
  
Solo piano:
E||-10---------------|--12----------------|-10---------------|
B||-------10----9----|--------13----------|-------10----9----|
G||---------14-------|--------------------|------------------|

--12---------------------|-10-------------|--12----------13-||
-------13----------------|------10---9----|--------13----13-||
-------------14----------|----------------|--------------14-||
-------------------14----|----------------|-----------------||

Guitar solo:  

E||----------10-----8---7-------------------12-----11----10-----| 
B||------10----------------------------10--------------------10-| 
G||--9-----------------------9-----10---------------------------| 
E||----------10-----8---7------------------7-----4--------------|
B||------10---------------------------5----------------3(5)-----| 
G||--9-----------------------9---7-----------------4------------| 

OR

E||----------8------8---7-------------------12-----12---10------|
B||-----10------------------10--------10---------------------12-|
G||--9----------------------------10----------------------------|

E||----------8------8---7---10-------------7-----6--------------|
B||-----10----------------------------9-----------------8-------|
G||--9---------------------------8-----------------8------------|
 
 

Видео