Onerepublic - Everybody Loves Me, аккорды

Прокрутка
Тональность
Шрифт
100
Intro / Verses / Pre-Chorus:
  E                                 E
e|--------------------------------|--------------------------------|
B|--------------------------------|--------------------------------|
G|--------------------------------|--------------------------------|
D|--------0h2---------------------|--------0h2---------------------|
A|--------------------------------|--------------------------------| x2
E|-0-0-0---------0-0--0-0h3p0h3p0-|-0-0-0---------0-0--0-0h3p0h3p0-|

Verse 1:
E
Well, hell sees her shadow in my backseat
E
And her friends are standing right in front of me
E
World wide from the Cimarron to Turkey
E
Open up, said everybody loves me

Pre-Chorus:
C                            Am
And you don't have to make a sound
                  E
They got what you need
         E
What you need
E
Oh, oh, oh, oh

Verse 2:
E
Got love for the people that have warned you
E
God love all your sentimental virtue
E
Eight balls with the takers that'll make you
E
Late calls with the lovers that'll hate you

Pre-Chorus:
C                            Am
And you don't have to make a sound
                  E
They got what you need
         E
What you need
E
Make you say

Chorus:
E
Oh my!
                  A
Feels just like I don't try
                C
Looks so good I might die
              N/С
All I know is everybody loves me
E
Head down
              A
Swaying to my own sound
               C
Flashes in my face now
              E
All I know is everybody loves me
E         C
Everybody loves me

Instrumental:
     E                                     E
e|-------------------------------------|-------------------------------|
B|-------------------------------------|-------------------------------|
G|-------------------------------------|-------------------------------|
D|----------0h2------------------------|----------0h2------------------|
A|-------------------------------------|-------------------------------|
E|---0-0-0---------0-0--0-0h3p0h3p0----|---0-0-0---------0-0--0-0h3----|

Verse 2:
E
Well, I pray the music don't stop till I turn gray
E
Stars forever like John Sousa never fade
E
He had a beautiful child, named her Desirée
E
Hope I'm remembered for the things that I never made

Pre-Chorus:
 C                              Am
'Cause you don't have to make a sound
                       E
When they got what you need
E
Make you say

Chorus:
E
Oh my!
                  A
Feels just like I don't try
                C
Looks so good I might die
              N.C.
All I know is everybody loves me
E
Head down
              A
Swaying to my own sound
              C
Flashes in my face now
              E
All I know is everybody loves me
E         C
Everybody loves me
E
Everybody, everybody, oh
E
Everybody, everybody

Bridge:
E
Don't need my health
E
Got my name and got my wealth
E
I stare at the sun
E
Just for kicks all by myself
E
I lose track of time
E
So I might be past my prime
E
But I'm feeling oh so good
E
Yeah!

Chorus:
E
Oh my!
                  A
Feels just like I don't try
                C
Looks so good I might die
              N/С
All I know is everybody loves me
E
Head down
              A
Swaying to my own sound
              C
Flashes in my face now
              E
All I know is everybody loves me
E         C
Everybody loves me, everybody

Outro:
E        A
Loves meeeeeee, oh I said
C                               E
Everybody, everybody (don't you know who you are?)
C       E          C          A
I said, everybody, everybody, everybody
A
Woah!
 
 

Видео