Oxxxymiron - Цунами (music by Пионерлагерь Пыльная Радуга), аккорды новинка

Прокрутка
Тональность
Шрифт
100
[Интро]

e|---------------------|
B|--7p6---6p5---4p2----|
G|------6-----5-----3--|
d|---------------------|
A|---------------------|
D|---------------------|

Е-е-е-е-е-е
Раз, раз, йау (Ха-а)

[Куплет 1]

e|---------------------| 
B|--7p6---6p5---4p2----|       
G|------6-----5-----3--|       
d|---------------------|       
A|---------------------|
D|---------------------|

bass:
 D|------------------------------------------------------------------------------------|
 G|------------------------------------------------------------------------------------|
 A|---0-----0---0-----0---0-----0---0---------0-----0---0-----0h6---0-----0------------|
A#|-0---0-0---0---0-0---0---0-0---0---0-----0---0-0---0---0-0-----0---0-0-----5-5---5-7|

A#m
Копил долго, любил тайно
D#m           F
Купил Volvo, полил пальму
A#m
Вернул справку, закрыл сделку
D#m           F
Тянул лямку, белил стенку (Да)
A#m
Ровно по стандарту, строго по закону
D#m              F
Жёстко по лекалу, чётко по канону
A#m
Твёрдо по теме, сжато, по факту (А)
D#m               F
Ёмко и конкретно, кратко и понятно
A#m
Делал то, что просят, думал: «Авось прокатит»
D#m                  F
Мерил то, что носят, верил: «На осень хватит»
A#m
Нашёл по знакомству, помог по хозяйству (А)
D#m                      F
Вошёл в руководство (А), пресёк разгильдяйство
A#m
Практически готов идеальный финал (Да-Да-Да-Да-Да)
D#m                  F  
До смешного близок мечтаний предел (Да-Да-Да-Да-Да)
A#m
Оправдана уйма стараний и сил

Неизбежно верен счастливый прогноз

[Припев]

e|--------------------------------|
B|--------------------------------|
G|--------------------------------|
d|-8-7---7-6-5---5-4---3-1-1------|
A|-8-7---7-6-5---5-4---3-1-1------|
D|-8-7---7-6-5---5-4---3-1-1------|

A#m                      F# 
Вдруг откуда ни возьмись гул
     F
На секунду мир замер
A#m                              F# 
Звук, как будто грядёт страшный суд
      F 
Над бухтой цунами
A#m                       F# 
Вдруг откуда ни возьмись гул
      F
На секунду мир замер
A#m                              F# 
Звук, как будто грядёт страшный суд
      F
Над бухтой цунами

[Куплет 2]

e|---------------------|
B|--7p6---6p5---4p2----|
G|------6-----5-----3--|
d|---------------------|
A|---------------------|
D|---------------------|

A#m
Облом вышел, провал стрясся
D#m                  F
С трудом выжил, едва спасся
A#m
Впитал опыт (Опыт), устранил из
D#m                  F
Всех расчётов уязвимость
A#m
Вычеркнул из адресной книги лишних и праздных (А)
D#m                          F
Личностей безнравственных с вечным токсичным хамством (А)
A#m
Исключил лекарства, сменил общественный транспорт (Фа)
D#m                  F
На личное пространство, ключи, герметичный панцирь, эй
A#m
Транслируя фото карточный позитив
D#m                  F
Оптимизировал, упорядочил, прокачал
A#m
Систематизировал, связал, посчитал, упростил
D#m                  F
Активизировал подарочный сертификат
A#m
Занимался собою, перестал появляться
D#m                  F
Завязал с алкоголем, отказался от мяса
A#m
Максимально спокоен, равномерно раскачан
D#m                  F
Идеально устроен, наконец всё иначе

[Припев]

e|--------------------------------|
B|--------------------------------|
G|--------------------------------|
d|-8-7---7-6-5---5-4---3-1-1------|
A|-8-7---7-6-5---5-4---3-1-1------|
D|-8-7---7-6-5---5-4---3-1-1------|

A#m                      F# 
Вдруг откуда ни возьмись гул
     F
На секунду мир замер
A#m                              F# 
Звук, как будто грядёт страшный суд
      F 
Над бухтой цунами
A#m                       F# 
Вдруг откуда ни возьмись гул
      F
На секунду мир замер
A#m                              F# 
Звук, как будто грядёт страшный суд
      F
Над бухтой цунами

A#m F#
      F
Над бухтой цунами

A#m F#
      F
Над бухтой цунами

Комментарий автора:

6 струну перестраиваем в D
 
 
Свернуть Распечатать

Аппликатуры аккордов

Аккорд A#mАккорд D#mАккорд FАккорд F#
lvchrlvchr
автор подбора аккордов
7,266 10 05.11.2021

Видео