Panda - Abierto, аккорды

Прокрутка
Тональность
Шрифт
100
Esta es una саnсiуn muy simple de Panda, no viene en 
ningun disco la tienes que bajar pero es muy conocida 
de todas formas

Intro y Verso
G-----------------------------------
D-----------------------------------
A---5-5-5--------------5/7-5--------
E---------3-3-3--7-7-7--------------

G-----------------------------------
D-----------------------------------
A---5-5-5---------------------------
E---------3-3-3--7-7-7-5-5-5--------

Coro
G-------------------------------------------
D-------------------------------------------
A-------------------5-5-5--5-7-7-9-9-10-10--
E-3-3-3-3-3-7--7--7-------------------------

se repite pero la ultima vez que se toca el coro
es asi:
G-------------------------------------------
D-------------------------------------------
A-------------------5-5-5--5-9-9-7-7-5-5----
E-3-3-3-3-3-7--7--7-------------------------

eso es todo, en la ultima linea del coro creo que toca
algo diferente, si lo corrigen me mandan la correcion 
porfas espero q les sirva