Panic! At The Disco - We're So Starving, аккорды

Прокрутка
Тональность
Шрифт
100
Intro: F  G#  A#  F
D||---------------------------|----------------------||
A||---------------------------|-------8--------------||
F||--/7-----------------------|--7-------------------|| {REPEAT}
C||------------10--9----10----|------------9~--------||
G||---------------------------|----------------------||
D||---------------------------|----------------------||

D||-------------------------|------------------------|---------------------||
A||------------10s----11----|--8---------------------|---------------------||
F||-------7-----------------|-------10----9----------|-----------------12~-||
C||--8----------------------|------------------10----|--9------------------||
G||-------------------------|------------------------|-----------10--------||
D||-------------------------|------------------------|---------------------||

F
Oh how it’s been so long
F
We’re so sorry we’ve been gone
G#           A#                F
We were busy writing songs for you

F                 G#
You don’t have to worry ‘cause we’re 
A#             F
still the same band
F                 G#
You don’t have to worry ‘cause we’re 
A#             F
still the same band

F
You don't have to worry
F
You don’t have to worry
     G#   A#
You don’t

F  G#  A#  F }x2

F
Oh how it’s been so long
F
We’re so sorry we’ve been gone
G#           A#                F
We were busy writing songs for you
 
 
Свернуть Распечатать

Видео