Павел Фахртдинов - Играй, аккорды

Прокрутка
Тональность
Шрифт
100
Вступление: 
1---3--------3---1/0---------------------
2--------1---------------1-------1/3/1/0-
3-----------------------------2---------- x2
4-------------------------3--------------
5---3------------------------------------
 
Потом:
1---3--------3---1/0------------------------0-----
2--------1---------------1-------0/1---1--------1-
3-----------------------------0-------------------
4-------------------------------------------------
5---3------------------------------------3--------
6-------------------------3-----------------------
 
C  G6/B  
Играй, не считая минуты, 
Am7  E/G#  
Просто играй свои ноты. 
F+7  C 
Не думай о том, почему ты, 
Bm7-5  E7 
Но помни о том, для кого ты. 
Am  E/G#  
Пусть к первым тебя не причислят, 
Am  G 
С тобой можно будет согреться. 
F9  C  G  Am 
Просто играй свои мысли, 
G6/B  F9  G  C 
Просто играй своё сердце. 

C  G6/B   
И если играешь не с теми, 
Am7  E/G#
Не расставляй им оценок, 
F+7  C 
Проигрывай скучные тени, 
Bm7-5  E7 
Выигравый каждый оттенок. 
Am  E/G#  
И законсервируй излишек, 
Am  G 
Потом тебе это запишут. 
F9  C  G  Am 
Не важно, что кто-то не слышит, 
G6/B  F9  G  C 
А важно, что кто-то услышит. 
F9  C  G  Am 
Не важно, что кто-то не слышит, 
G6/B  F9  G  C 
Важно, что кто-то услышал. 
 
Проигрыш: C | G | Am | B7 | Em | D | G 
          D | G | F# | Bm | A | D | G  
 
C  G6/B  
Пусть долго твой звук взаперти был, 
Am7  E/G#
Играя, ты сможешь понять. 
F+7  C 
Не страшно, что кто-то сфальшивил, 
Bm7-5  E7 
Он хоть попытался сыграть 
Am  E/G#  
Играй, не считая минуты, 
Am  G 
Просто играй свои ноты. 
F9  C  G  Am 
Не думай о том, почему ты, 
G6/B  F9  G  C 
Думай о том, для кого ты. 
F9  C  G  Am 
Не думай о том, почему ты, 
G6/B  F9  G  C 
Просто играй своё сердце. 

Комментарий автора:

G6/B______x20030 
E/G#______4x2400 
F+7_______x33210 
F9________xx3213 
Bm7-5____x2323x 
E7________020130
 
 
Свернуть Распечатать

Видео