Павел Пламенев - Ночь перед боем, аккорды

Прокрутка
Тональность
Шрифт
100
Куплет:       Cm         A#       G#         Fm          G#     
3)-----5--------5---------3------------------------------------
4)---5--------5---5-----3-----------6----------3----------6----
5)-3------3-----------1-----------6---6------3----------6---6--
6)----------------------------4------------1--------4----------

Куплет:
Cm
Не сплю,
 A#          G#  
А Ночь перед боем!
   F       G#    
И даже героям страшно.
 Cm
Во тьму
 A#         G#
Холодной могилы
    Fm      G#     
Влекут меня силы ада! 
 Cm
Молю!
   A#       G#
Горит пентаграмма
       Fm    G#      
У древнего храма.
Cm 
Боже, ты?

Припев:
Cm  
Я!
A#         G#       Fm      Cm
Дай мне победу! Возьми,её сам! 
  A#          G#      Fm     Cm
И силы к рассвету!Вот их - дам!
   A#         G#      Fm     Cm
Веди меня к свету!Построй храм!
  A#        G#
Я жду тебя там!

Соло:     Cm  A#   G#      Fm     Cm  A#    G#             
1)-8-6-3-1-----------------8-6-3-1------------------
2)---------1--6-6-6-4-1-1----------1--6-6-6-4-1-1---

Куплет:
Cm
К утру,
 A#          G# 
Клянусь так и было,
   F       G#  
Росла во мне сила и ни к
Cm
Кому
 A#          G# 
Не знал я пощады,
   F       G#  
И он все прощал мне зверства.
Cm
Ему
 A#          G# 
Плевать на рыданья,
   F       G#                   Cm
Чем больше страданья - тем выше храм!

Припев:
Cm
Да!
A#         G#       Fm      Cm
Дай мне победу! Возьми,её сам! 
  A#          G#      Fm     Cm
И силы к рассвету!Вот их - дам!
   A#         G#      Fm     Cm
Веди меня к свету!Построй храм!
  A#        G#
Я жду тебя там!

Соло:     Cm  A#   G#      Fm     Cm  A#    G#             
1)-8-6-3-1-----------------8-6-3-1------------------
2)---------1--6-6-6-4-1-1----------1--6-6-6-4-1-1---

Проигрыш: Cm A# G# Fm }x2

Припев:
Cm
Да!
    A#    G#      Fm    Cm
Дай силу воли!Да ты - ноль!
    A#         G#        Fm       Cm
Не чувствовать боли!Вся жизнь - боль.
    A#          G#     Fm     Cm
Не лечь в этом поле!Забудь страх!
     A#          G#
Ты и так уже - прах!

Кода=Соло:
          Cm  A#   G#      Fm     Cm  A#    G#             
1)-8-6-3-1-----------------8-6-3-1------------------
2)---------1--6-6-6-4-1-1----------1--6-6-6-4-1-1---

Комментарий автора:

Бой: V v v^
 
 
Свернуть Распечатать

Видео