Peace Days - Реалити-шоу, аккорды

Прокрутка
Тональность
Шрифт
100
Вступление:
   C                  D                  Em                            C                  D         
1)-----------------------------------------------------------------0-|--------------------------------------
2)--------------------------------------------0---0--------------0---|--------------------------------------
3)-----0-------0----------0-------0-------------0---0----------------|-----0-------0----------0-------0-----
4)----5------5---5-------4------4---4-------2------------------2-----|----5------5---5-------4------4---4---
5)-3-------3------3---5-------5------5-------------------------------|-3-------3------3---5-------5------5--
6)-------3------------------7------------0------------0--0-0-0-------|-------3------------------7-----------
              Em
1)-------------------0-0-0-0-0-0-0-0-
2)----0---0----------0-0-0-0-0-0-0-0-
3)------0---0--------0-0-0-0-0-0-0-0-
4)--2----------------2-2-2-2-2-2-2-2-
5)-------------------2-2-2-2-2-2-2-2-
6)------------0--0-0-0-0-0-0-0-0-0-0-
                     V v ^ ^ v V v ^

Куплет:
C                     D
Мне не нужны твои слова
                Em
Молчи, сиди и слушай
                  Em
Я разделил напополам
Em
Свои мысли и душу

C                    D 
Ей выписал товарный чек
              Em
Порвала как одежду
                        Em
Измазала в свой черный снег
Em
Последнюю надежду

Припев:
C            
Мое Реалити-шоу
D
Моя болезнь, я...

Проигрыш 1:
1)------------------------------------------------------------------------------------5-5-3-2-0--10-10-8-7-5-
2)-5-0-3-5--5-0-3-5--3-3/5-0--5-0-3-5--5-0-3-5--3-3/5-0------------------------------------------------------
3)----------------------------------------------------------4-7-5-----4-----5-7-8-7-8------------------------
4)-------------------------------------------------------4-5-------4-5---4-5---------------------------------

1)------------------------------------------------------------------------------------5-5-3-2-0--10-10-8-7-5-
2)-5-0-3-5--5-0-3-5--3-3/5-0--5-0-3-5--5-0-3-5--3-3/5-0------------------------------------------------------
3)----------------------------------------------------------4-7-5-----4-----5-7-8-7-8------------------------
4)-------------------------------------------------------4-5-------4-5---4-5---------------------------------

1)-3----5-5-3-
2)------------
3)------------
4)------------

Куплет:
C 
Ты еще здесь?!
          D
Я продолжаю
                       Em
Глотая жадно тусклый свет
                 Em
Я не живу, я доживаю
Em
Но я не поменяюсь, нет!
C                          D  
Каждой из них нужно быть первой
                          Em
Нужно залезть как можно глубже
                 Em
Мои натянутые нервы
Em
Вывернуть наружу

Припев:
C            
Мое Реалити-шоу
D                     
Моя болезнь, я пленный
Em                    
Я вылечу, но не взлечу
Em
И разобьюсь о стены
C
Не понимаю твоих фраз
D
Не догоняешь, кто я
Em
Так дай же мне последний шанс
Em               C  
Оставь меня в покое
D                Em  Em
Оставь меня в покое...

Проигрыш 2:
  D          Em        Em          C        D            Em    Em        C             D             Em                          
1)-2-2-2-2-2-2-0---5-5-3-2---2-3---0-2-3-5--0-3-2-3--2-3-0---3-5--3-2--3-0--0-2-3-2-3--0-7-10-8--3-5-2-0-2--
    Em
1)-2-3-5-3-2-3-0-

Припев:
C            
Мое Реалити-шоу
D                     
Моя болезнь, я пленный
Em                    
Я вылечу, но не взлечу
Em
И разобьюсь о стены
C
Не понимаю твоих фраз
D
Не догоняешь, кто я
Em
Так дай же мне последний шанс
Em               C  
Оставь меня в покое
D                Em  Em
Оставь меня в покое...

Кода: С D Em Em       

Комментарий автора:

Бой: V v ^ ^ v V v ^. Лучше перевести 6 струну на тон ниже и играть D 
как открытые верхние 3 струны (но это не обязательно).
 
 
Свернуть Распечатать

Видео