Pep's - Liberta, аккорды

Прокрутка
Тональность
Шрифт
100
Capo 6 

Intro: 
   Em        Em           C           C           G          G           D/F#  
e|-----0----------0------------0-----------0-----------0----------0-------------| 
B|-0---------0------------0-----------0-----------0----------0-----------0------| 
G|------------------------------------------------------------------------------| 
D|---2---2------2---2--------0---0-------0---0-------0---0------0---0-----------| 
A|------------------------3-----------3-----------------------------------------| 
E|-0---------0------------------------------------3----------3-----------2------| 
 
Picking qu'on va répéter tout le long:  
     Em           C            G             D/F#  
e||----------0------------0-------------0------------0--------------|| 
B||-----0----0-------0----0-------0-----0-------0----0--------------|| 
G||*----0----0-------0----0-------0-----0-------0----0-------------*|| 
D||*----2------------2------------0-------------0------------------*|| 
A||--------2------3-----3------------2-------------0----------------|| 
E||--0-------------------------3-------------2----------------------|| 
 
 Em                                    C  
Tu sais qu'y a un bateau qui mene au  Pays des reves 
 G                                       D/F#  
La-bas ou il fait chaud, ou l'ciel n'a  Pas son pareil 
 
 Em                                      C  
Tu sais qu'au      bout d'cette terre     Oh oui les gens sèment 
 G                                       D/F#  
Des milliers d'graines de joie ou   Pousse ici la haine 
 
 Em                                      C  
On m'avait dit p'tit gars   La-bas on t'enleve tes chaines 
 G                                       D/F#  
On t'donne une vie     Sans t'jeter dans l'arene 
 
 Em                                      C  
Comme ici    tout petit apres    Neuf mois a peine 
 G                                       D/F#  
On te plonge dans une vie  ou tu perds vite haleine 
 
 Em                                      C  
Alors sans hesiter   J'ai saute dans la mer 
 G                                       D/F#  
Pour rejoindr'ce vaisseau  Et voir enfin cette terre 
 
 Em                                      C  
La-bas trop     de lumiere   J'ai du fermer les yeux 
 G                                       D/F#  
Mais rien que les odeurs   Remplissaient tous mes voeux 
 
Refrain: 
 Em                    C  
I just wanna be free In this way 
 G                  D/F#  
Just wanna be free In my world 
 Em      C  
Vivere per liberta 
 G        D/F#  
Vivere nella liberta 
 
 Em  C  G  D/F#  
Oooh Ooooh  
 
 Em                                      C  
Alors une petite fille aussi  Belle que nature 
 G                                       D/F#  
Me pris par la main et m'dit Suis cette aventure 
 
 Em                                      C  
On disait   meme, oh oui   Que la mer l'enviait 
 G                                       D/F#  
Que la montagne se courbait  Pour la laisser passer 
 
 Em                                      C  
Elle m'emmena au loin   Avec une douceur sans fin 
 G                                       D/F#  
Et ses bouclettes dorees  Degageaient ce parfum 
 
 Em                                  C  
Qui depuis des annees guidait ce chemin  
 G                             D/F#  
ton chemin, Mon chemin, le chemin 
 
Refrain:
 Em                    C  
I just wanna be free In this way 
 G                  D/F#  
Just wanna be free In my world }x2 
 Em      C  
Vivere per liberta 
 G        D/F#  
Vivere nella liberta 
 
 Em  C  G  D/F#  
Oooh Ooooh  
 
 Em                                      C  
Pour arriver enfin a ces reves d'enfants 
 G                                       D/F#  
Qui n'ont pas de limites comme on a maintenant 
 
 Em                                      C  
J'ai vu des dauphins nager dans un ciel de coton 
 G                                       D/F#  
ou des fleurs volaient caressant l'horizon 
 
 Em                                      C  
J'ai vu des arbres pousser remplacant les gratte-ciel 
 G                                       D/F#  
J'ai vu au fond de l'eau une nuee d'hirondelles 
  
Refrain:
 Em                    C  
I just wanna be free In this way 
 G                  D/F#  
Just wanna be free In my world 
 Em      C  
Vivere per liberta 
 G        D/F#  
Vivere nella liberta 
 
 Em  C  G  D/F#  
Oooh Ooooh  
 
 

Видео