Переделанные песни (пародии) - Погоня (к/ф "Новые приключения неуловимых"), аккорды

Прокрутка
Тональность
Шрифт
100
Intro: (distortion)
E||-----------------
B||-111111111111111-
G||-000000000000000-
D||-----------------
A||------------------
E||------------------

Куплет:
  Усталость забыта,    колышется   чад  
E||---------------------|-------------------
B||-----------44444444--|11111111-----------
G||-----------33333333--|00000000-----------
D||-33333333--11111111--|----------66666666-
A||-33333333------------|----------66666666-
E||-11111111------------|----------44444444-

  И снова  кастеты   как сердце стучат
E||---------------------|-------------------
B||-----------66666666--|44444444--11111111-
G||-----------55555555--|33333333--00000000-
D||-33333333--33333333--|11111111-----------
A||-33333333------------|-------------------
E||-11111111------------|-------------------

Припев:
 И  нет нам покоя,     гори,  но живи   
E||---------------------|------------
B||-99999999--88888888--|77777777----
G||-88888888--77777777--|66666666—-3-
D||-66666666--55555555--|44444444—-3-
A||---------------------|----------1-
E||---------------------|------------

    Погоня погоня погоня погоня в горячей  крови 
E||-----------------------------|---------------
B||------------------------6-6--|--1-1-4----2-1-
G||-----------------6-6--6-5-5--|--0-0-3----0-0-
D||-6-5-5--6-8-8--8-6-6--6-3-3--|------1--------
A||-6-5-5--6-8-8--8-4-4--4------|---------------
E||-4-3-3--4-6-6--6-------------|---------------

   Погоня погоня погоня  погоня в горячей  крови 
E||-----------------|------4-----------------
B||------------6-6--|--1-1-2----8-6----------
G||-----6-6--6-5-5--|--0-0-1----7-5----------
D||-6-5-5--6-8-8--8-6-6--6-3-3---------------
A||-6-5-5--6-8-8--8-4-4--4-------------------
E||-4-3-3--4-6-6--6--------------------------

Куплет: 
  Есть пули в нагане     и надо успеть
E||---------------------|-------------------
B||-----------44444444--|11111111-----------
G||-----------33333333--|00000000-----------
D||-33333333--11111111--|----------66666666-
A||-33333333------------|----------66666666-
E||-11111111------------|----------44444444-

  Сразиться с гопами      и песню допеть
E||---------------------|-------------------
B||-----------66666666--|44444444--11111111-
G||-----------55555555--|33333333--00000000-
D||-33333333--33333333--|11111111-----------
A||-33333333------------|-------------------
E||-11111111------------|-------------------

Припев:
 И  нет нам покоя,     гори,  но живи   
E||---------------------|------------
B||-99999999--88888888--|77777777----
G||-88888888--77777777--|66666666—-3-
D||-66666666--55555555--|44444444—-3-
A||---------------------|----------1-
E||---------------------|------------

    Погоня погоня погоня погоня в горячей  крови 
E||-----------------------------|---------------
B||------------------------6-6--|--1-1-4----2-1-
G||-----------------6-6--6-5-5--|--0-0-3----0-0-
D||-6-5-5--6-8-8--8-6-6--6-3-3--|------1--------
A||-6-5-5--6-8-8--8-4-4--4------|---------------
E||-4-3-3--4-6-6--6-------------|---------------

   Погоня погоня погоня  погоня в горячей  крови 
E||-----------------|------4-----------------
B||------------6-6--|--1-1-2----8-6----------
G||-----6-6--6-5-5--|--0-0-1----7-5----------
D||-6-5-5--6-8-8--8-6-6--6-3-3---------------
A||-6-5-5--6-8-8--8-4-4--4-------------------
E||-4-3-3--4-6-6--6--------------------------

Соло:
е||---------------------|------------------------
B||----1----------------|----1----4----2-------1-
G||--------1------------|----1----0--------------
D||---------3-----------|------------------------
A||---------------------|------------------------
E||---------------------|------------------------

е||-----------------|---------1----3-----
B||-----------------|----1---------------
G||-0----1----------|----0-------------1-
D||-----------------|---------3----------
A||-----------------|--------------------
E||-----------------|--------------------

е||-1----------------|---------4------1---|------
B||------4-----------|----2----1----------|----1-
G||----3-------------|--------------------|------
D||------------------|--------------------|------
A||------------------|--------------------|------
E||------------------|--------------------|------

е||-------|------4----3---------|-----------
B||4------|---------7--------6--|----4------
G||-------|----5----------------|---------3-
D||-------|---------------------|-----------
A||-------|---------------------|-----------
E||-------|---------------------|-----------

е||--------------------|---------------------1--|
B||--------------------|----------2--2----2-----|
G||---1--0--0----0--3--|--3----3----------------|
D||--------------------|------------------------|
A||--------------------|------------------------|
E||--------------------|------------------------|

е||-------------1--1--|-----------|
B||-------1----4------|----2----1-|
G||-------------------|-----------|
D||-------------------|-----------|
A||-------------------|-----------|
E||-------------------|-----------|

е||--------------------|---------------------1--|
B||--------------------|----------2--2----2-----|
G||---1--0--0----0--3--|--3----3----------------|
D||--------------------|------------------------|
A||--------------------|------------------------|
E||--------------------|------------------------|

е||-1----1-------4------|----3----1----------|
B||---------1-----------|--------------------|
G||---------------------|--------------------|
D||---------------------|--------------------|
A||---------------------|--------------------|
E||---------------------|--------------------|

Припев:
 И  нет нам покоя,     гори,  но живи   
E||---------------------|------------
B||-99999999--88888888--|77777777----
G||-88888888--77777777--|66666666—-3-
D||-66666666--55555555--|44444444—-3-
A||---------------------|----------1-
E||---------------------|------------

    Погоня погоня погоня погоня в горячей  крови 
E||-----------------------------|---------------
B||------------------------6-6--|--1-1-4----2-1-
G||-----------------6-6--6-5-5--|--0-0-3----0-0-
D||-6-5-5--6-8-8--8-6-6--6-3-3--|------1--------
A||-6-5-5--6-8-8--8-4-4--4------|---------------
E||-4-3-3--4-6-6--6-------------|---------------

   Погоня погоня погоня  погоня в горячей  крови 
E||-----------------|------4-----------------
B||------------6-6--|--1-1-2----8-6----------
G||-----6-6--6-5-5--|--0-0-1----7-5----------
D||-6-5-5--6-8-8--8-6-6--6-3-3---------------
A||-6-5-5--6-8-8--8-4-4--4-------------------
E||-4-3-3--4-6-6--6--------------------------

Куплет:
  В удачу поверьте       и дело с концом
E||---------------------|-------------------
B||-----------44444444--|11111111-----------
G||-----------33333333--|00000000-----------
D||-33333333--11111111--|----------66666666-
A||-33333333------------|----------66666666-
E||-11111111------------|----------44444444-

  Да здравствует HEAVY,   который METAL
E||---------------------|-------------------
B||-----------66666666--|44444444--11111111-
G||-----------55555555--|33333333--00000000-
D||-33333333--33333333--|11111111-----------
A||-33333333------------|-------------------
E||-11111111------------|-------------------

Припев:
 И  нет нам покоя,     гори,  но живи   
E||---------------------|------------
B||-99999999--88888888--|77777777----
G||-88888888--77777777--|66666666—-3-
D||-66666666--55555555--|44444444—-3-
A||---------------------|----------1-
E||---------------------|------------

   Погоня погоня погоня погоня в горячей  крови 
E||-----------------------------|---------------
B||------------------------6-6--|--1-1-4----2-1-
G||-----------------6-6--6-5-5--|--0-0-3----0-0-
D||-6-5-5--6-8-8--8-6-6--6-3-3--|------1--------
A||-6-5-5--6-8-8--8-4-4--4----------------------
E||-4-3-3--4-6-6--6-----------------------------

  Погоня  погоня погоня погоня  в горячей  крови         
E||------------------------4---------------------T-------T--------T-------T--
B||------------6-6-----1-1-2----8-6----------6h7h8p-6h7h10-p-6h7h12p-6h7h14p-
G||-----6-6--6-5-5-----0-0-3----0-0------------------------------------------
D||-6-5-5--6-8-8--8-6-6--6-3-3-----------------------------------------------
A||-6-5-5--6-8-8--8-4-4--4---------------------------------------------------
E||-4-3-3--4-6-6--6----------------------------------------------------------

е||------T-------T-------T|-------------|
B||-6h7h15p-6h7h17p-6h7h19|~~~~~~~~~~~1-|
G||-----------------------|-------------|
D||-----------------------|-------------|
A||-----------------------|-------------|
E||-----------------------|-------------|

Комментарий автора:

T – Тэппинг.
~ - Вибрато.
 - Слайд.
H – Хаммер.
P – Пул – оф.
 
 

Видео