Переделанные песни (пародии) - Rammstein "Links 2 3 4", аккорды

Прокрутка
Тональность
Шрифт
100
e|--------------------------------------------
b|--------------------------------------------
g|-------9---------9---------9----------------
D|-------9---------9---------9------5/7-----8-
A|-------7---------7---------7------5/7-----8-
E|--0-0--0--0-0-0--0--0-0-0--0--0-0-3/5--0--6-
Pm  . .     . . .     . . .     . .      .

e|------------------------------------------------------
b|------------------------------------------------------
g|-------9---------9---------9--------------------------
D|-------9---------9---------9-------5/7----------8-8-8-
A|-------7---------7---------7-------5/7----------8-8-8-
E|--0-0--0--0-0-0--0--0-0-0--0--0-0--3/5--0-0-0-0-6-6-6-
Pm  . .     . . .     . . .     . .       . . . .

Solo:
e|---------------7p0---------------------------------7p0-
b|--7p0-9p0-10p0-----10p0-9p0-7p0-9p0--10p9-9p0-10p0-----
g|-------------------------------------------------------
D|-------------------------------------------------------
A|-------------------------------------------------------
E|-------------------------------------------------------

e|--------------
b|-10p0-9p0-7~~-
g|--------------
D|--------------
A|--------------
E|--------------

e|---------------7p0---------------------------------7p0-
b|--7p0-9p0-10p0-----10p0-9p0-7p0-9p0--10p9-9p0-10p0-----
g|-------------------------------------------------------
D|-------------------------------------------------------
A|-------------------------------------------------------
E|-------------------------------------------------------

e|------------------
b|-10p0-9p0-12~~~~~-
g|------------------
D|------------------
A|------------------
E|------------------

Текст:

Ты программист тебе компьютер.
Парит мозги.
Ты плотник, ты суешь свои яйца в тиски.
Ты проститутка, работаешь и на улице стоишь.

А я каменщик, всегда все строю.
Зато ты не можешь как я.
Завидуешь.

Ты маляр, ты часто травишься краской.
В конечном итоге ты получаешь рак легких.
Ты скалолаз, но вдруг сорвешься.
Грохнувшись, и превратившись в лепешку.

А я рабочий, я кладу кирпич.
Зато ты не можешь как я.
Завидуешь.

Ты рыночный продавец.
В тебя все часто швыряют дерьмом под навес.
А ты банкир, ты очень занятой человек.
Ты даже жене своей ночь, в постели дать не можешь вовек.

Ты наркоман, ты очень часто куришь план.
И спускаешь все свои расходы на кайф.
Везет тому у кого, жена красивая фотомодель wife.
И тому у кого, всегда все клево.
 
 

Видео